Oops, an error
Loading. Please wait.

Tilttaamaan tab

by Robin
7 views 3 this week
no commentswrite comment
1 2 3 4 5
3 more votes to show rating
add to favorites
×
Save as Personal and add changes to this tab that will be seen only by you. Learn more ›
×
You can save this tab as Personal to edit and correct it or add notes. All changes will be seen only by you. Learn more »
launch autoscroll
font size
0
reset
how to read this tab
guitar tuner
edit
Autoscroll
slow
fast
+/-
esc
set tempo
stop
[Intro]
   1  +  2  +  3  +  4  +   1  +  2  +  3  +  4  +   1  +  2  +  3  +  4  +   1  +  2  +  3  +  4  +
   Am          F            C           G            Am          F            C           G
e|----5--5-5---5---5--5-5-|----8--8-8---7---7--7-7-|----5--5-5---5---5--5-5-|----8--8-8---7--7-------|
B|----5--5-5---6---6--6-6-|----8--8-8---8---8--8-8-|----5--5-5---6---6--6-6-|----8--8-8---8--8-------|
G|----5--5-5---5---5--5-5-|----9--9-9---7---7--7-7-|----5--5-5---5---5--5-5-|----9--9-9---7--7-------|
D|------------------------|------------------------|------------------------|------------------------|
A|------------------------|------------------------|------------------------|------------------------|
E|------------------------|------------------------|------------------------|------------------------|

[Verse 1]
   1  +  2  +  3  +  4  +   1  +  2  +  3  +  4  +   1  +  2  +  3  +  4  +   1  +  2  +  3  +  4  +
   Am                       F                        C                        G           N.C.
e|----5--5-5---5---5--5-5-|----5--5-5---5---5--5-5-|----8--8-8---8---8--8-8-|----7--7-7--------------|
B|----5--5-5---5---5--5-5-|----6--6-6---6---6--6-6-|----8--8-8---8---8--8-8-|----8--8-8--------------|
G|----5--5-5---5---5--5-5-|----5--5-5---5---5--5-5-|----9--9-9---9---9--9-9-|----7--7-7--------------|
D|------------------------|------------------------|------------------------|------------------------|
A|------------------------|------------------------|------------------------|------------------------|
E|------------------------|------------------------|------------------------|------------------------|

   1  +  2  +  3  +  4  +   1  +  2  +  3  +  4  +   1  +  2  +  3  +  4  +   1  +  2  +  3  +  4  +
   Am                       F                        C                        G
e|----5--5-5---5---5--5-5-|----5--5-5---5---5--5-5-|----8--8-8---8---8--8-8-|----7--7-7---7---7--7-7-|
B|----5--5-5---5---5--5-5-|----6--6-6---6---6--6-6-|----8--8-8---8---8--8-8-|----8--8-8---8---8--8-8-|
G|----5--5-5---5---5--5-5-|----5--5-5---5---5--5-5-|----9--9-9---9---9--9-9-|----7--7-7---7---7--7-7-|
D|------------------------|------------------------|------------------------|------------------------|
A|------------------------|------------------------|------------------------|------------------------|
E|------------------------|------------------------|------------------------|------------------------|

   1  +  2  +  3  +  4  +   1  +  2  +  3  +  4  +   1  +  2  +  3  +  4  +   1  +  2  +  3  +  4  +
   Am                       F                        C                        N.C.
e|----5--5-5---5---5--5-5-|----5--5-5---5---5--5-5-|----8--8-8---8---8--8-8-|------------------------|
B|----5--5-5---5---5--5-5-|----6--6-6---6---6--6-6-|----8--8-8---8---8--8-8-|------------------------|
G|----5--5-5---5---5--5-5-|----5--5-5---5---5--5-5-|----9--9-9---9---9--9-9-|------------------------|
D|------------------------|------------------------|------------------------|------------------------|
A|------------------------|------------------------|------------------------|------------------------|
E|------------------------|------------------------|------------------------|------------------------|

[Chorus]
   1  +  2  +  3  +  4  +   1  +  2  +  3  +  4  +   1  +  2  +  3  +  4  +   1  +  2  +  3  +  4  +
   Am          F            C           G            Am          F            C           G
e|----5--5-5---5---5--5-5-|----8--8-8---7---7--7-7-|----5--5-5---5---5--5-5-|----8--8-8---7--7-------|
B|----5--5-5---6---6--6-6-|----8--8-8---8---8--8-8-|----5--5-5---6---6--6-6-|----8--8-8---8--8-------|
G|----5--5-5---5---5--5-5-|----9--9-9---7---7--7-7-|----5--5-5---5---5--5-5-|----9--9-9---7--7-------|
D|------------------------|------------------------|------------------------|------------------------| (x2)
A|------------------------|------------------------|------------------------|------------------------|
E|------------------------|------------------------|------------------------|------------------------|

   1  +  2  +  3  +  4  +   1  +  2  +  3  +  4  +
   Am          F            C           G
e|-5--5--------5--5-------|------------------------|
B|-5--5--------6--6-------|------------------------|
G|-5--5--------5--5-------|------------------------|
D|------------------------|------------------------|  (x2)
A|------------------------|------------------------|
E|------------------------|------------------------|

[Verse 2]
   1  +  2  +  3  +  4  +   1  +  2  +  3  +  4  +   1  +  2  +  3  +  4  +   1  +  2  +  3  +  4  +
   Am                       F                        C                        G           N.C.
e|----5--5-5---5---5--5-5-|----5--5-5---5---5--5-5-|----8--8-8---8---8--8-8-|----7--7-7--------------|
B|----5--5-5---5---5--5-5-|----6--6-6---6---6--6-6-|----8--8-8---8---8--8-8-|----8--8-8--------------|
G|----5--5-5---5---5--5-5-|----5--5-5---5---5--5-5-|----9--9-9---9---9--9-9-|----7--7-7--------------|
D|------------------------|------------------------|------------------------|------------------------|
A|------------------------|------------------------|------------------------|------------------------|
E|------------------------|------------------------|------------------------|------------------------|

   1  +  2  +  3  +  4  +   1  +  2  +  3  +  4  +   1  +  2  +  3  +  4  +   1  +  2  +  3  +  4  +
   Am                       F                        C                        G
e|----5--5-5---5---5--5-5-|----5--5-5---5---5--5-5-|----8--8-8---8---8--8-8-|----7--7-7---7---7--7-7-|
B|----5--5-5---5---5--5-5-|----6--6-6---6---6--6-6-|----8--8-8---8---8--8-8-|----8--8-8---8---8--8-8-|
G|----5--5-5---5---5--5-5-|----5--5-5---5---5--5-5-|----9--9-9---9---9--9-9-|----7--7-7---7---7--7-7-|
D|------------------------|------------------------|------------------------|------------------------|
A|------------------------|------------------------|------------------------|------------------------|
E|------------------------|------------------------|------------------------|------------------------|

   1  +  2  +  3  +  4  +   1  +  2  +  3  +  4  +   1  +  2  +  3  +  4  +   1  +  2  +  3  +  4  +
   Am                       F                        C                        N.C.
e|----5--5-5---5---5--5-5-|----5--5-5---5---5--5-5-|----8--8-8---8---8--8-8-|------------------------|
B|----5--5-5---5---5--5-5-|----6--6-6---6---6--6-6-|----8--8-8---8---8--8-8-|------------------------|
G|----5--5-5---5---5--5-5-|----5--5-5---5---5--5-5-|----9--9-9---9---9--9-9-|------------------------|
D|------------------------|------------------------|------------------------|------------------------|
A|------------------------|------------------------|------------------------|------------------------|
E|------------------------|------------------------|------------------------|------------------------|

[Chorus]
   1  +  2  +  3  +  4  +   1  +  2  +  3  +  4  +   1  +  2  +  3  +  4  +   1  +  2  +  3  +  4  +
   Am          F            C           G            Am          F            C           G
e|----5--5-5---5---5--5-5-|----8--8-8---7---7--7-7-|----5--5-5---5---5--5-5-|----8--8-8---7--7-------|
B|----5--5-5---6---6--6-6-|----8--8-8---8---8--8-8-|----5--5-5---6---6--6-6-|----8--8-8---8--8-------|
G|----5--5-5---5---5--5-5-|----9--9-9---7---7--7-7-|----5--5-5---5---5--5-5-|----9--9-9---7--7-------|
D|------------------------|------------------------|------------------------|------------------------| (x2)
A|------------------------|------------------------|------------------------|------------------------|
E|------------------------|------------------------|------------------------|------------------------|

   1  +  2  +  3  +  4  +   1  +  2  +  3  +  4  +
   Am          F            C           G
e|-5--5--------5--5-------|------------------------|
B|-5--5--------6--6-------|------------------------|
G|-5--5--------5--5-------|------------------------|
D|------------------------|------------------------|  (x2)
A|------------------------|------------------------|
E|------------------------|------------------------|

[Bridge]
N.C.

[Chorus/Outro]
   1  +  2  +  3  +  4  +   1  +  2  +  3  +  4  +   1  +  2  +  3  +  4  +   1  +  2  +  3  +  4  +
   Am          F            C           G            Am          F            C           G
e|----5--5-5---5---5--5-5-|----8--8-8---7---7--7-7-|----5--5-5---5---5--5-5-|----8--8-8---7--7-------|
B|----5--5-5---6---6--6-6-|----8--8-8---8---8--8-8-|----5--5-5---6---6--6-6-|----8--8-8---8--8-------|
G|----5--5-5---5---5--5-5-|----9--9-9---7---7--7-7-|----5--5-5---5---5--5-5-|----9--9-9---7--7-------|
D|------------------------|------------------------|------------------------|------------------------| (x4)
A|------------------------|------------------------|------------------------|------------------------|
E|------------------------|------------------------|------------------------|------------------------|
Suggest correction
Creating personal tab
Creating personal tab
You can edit any tab online and save it as your Personal.

You can edit, replace or remove any tab part or add personal notes – all changes will be seen only by you.

Personal tabs can be accessed anytime from any device, even offline.
Learn more »
Give kudos to tab author, rate the tab!
1 2 3 4 5
comments
print report bad tab
guest
You may want to rate the tab now too:
select rating
Wanna post a correction for this tab? Suggest correction