Oops, an error
Loading. Please wait.

Sugar intro tab

version 1
version 1

Intro

Whole song

Interactive

83,758 views 177 this week
7 commentsread comments
1 2 3 4 5
x 76
add to favorites
×
Save as Personal and add changes to this tab that will be seen only by you. Learn more ›
×
You can save this tab as Personal to edit and correct it or add notes. All changes will be seen only by you. Learn more »
launch autoscroll
font size
0
reset
how to read this tab
guitar tuner
edit
Autoscroll
slow
fast
+/-
esc
set tempo
stop
-------------------------------------------------------------------------------
                  SUGAR - Robin Schulz feat. Francesco Yates
-------------------------------------------------------------------------------
Tabbed by: Fabian from DuoChords.com - Tabs and Chords for two guitarrists. Have a look!
E-mail:

Tuning: Standard
Capo: 6th

It's correct to 95% i think :)
Have fun with it and please, recommend it, it's my first tab :)

e|-----------------|-------------------|
B|-----------------|-------------------|
G|---0---0h2p0-----|-------------------|
D|-----2-------2-0-|---0-0--0h2p0------|
A|-----------------|-2------------2-2-0|
E|-0---------------|-------------------|

e|-------------|-----------------|
B|-------------|-----------------|
G|-------------|-----------------|
D|-------------|---2---2h4p2---0-|
A|---2-----4---|-----2-------2---|
E|-3---3/5---5-|-0---------------|


melody (also capo an 6th):


e|-0-0-0------------------------------|
B|-------3-0-0-0h3-3/2-2-0------------|
G|-------------------------~4---------|
D|------------------------------------|
A|------------------------------------|
E|------------------------------------|

************************************

| /   slide up
| h   hammer-on
| p   pull-off

************************************
Suggest correction
Creating personal tab
Creating personal tab
You can edit any tab online and save it as your Personal.

You can edit, replace or remove any tab part or add personal notes – all changes will be seen only by you.

Personal tabs can be accessed anytime from any device, even offline.
Learn more »
comments
print report bad tab
7 comments total. Showing first comments.
+2 reply
Margauxmusic 23 Sep 06, 2015 06:07 AM

Well done, thank you!

0 reply
ajd__10 10 Oct 01, 2015 05:45 AM

Sounds great Thanks!

0 reply
werner.dewitte 10 Oct 11, 2015 10:53 AM

bar 1&2

e|-----------------|-------------------|
B|-----------------|-------------------|
G|---0---0h2p0-----|-------------------|
D|-----2---------0-|---0-0--0h2-0------|
A|-------------2---|-2------------2-2--|
E|-0---------------|-------------------|

guest
You may want to rate the tab now too:
select rating
Wanna post a correction for this tab? Suggest correction