Oops, an error
Loading. Please wait.

Sugar tab

version 1
version 1

Whole song

Interactive

Video

  • It includes a detail view of the left and the right hand.
13,394 views 18 this week
2 commentsread comments
1 2 3 4 5
x 11
add to favorites
×
Save as Personal and add changes to this tab that will be seen only by you. Learn more ›
×
You can save this tab as Personal to edit and correct it or add notes. All changes will be seen only by you. Learn more »
launch autoscroll
font size
0
reset
how to read this tab
guitar tuner
edit
Autoscroll
slow
fast
+/-
esc
set tempo
stop
Author
Difficulty
intermediate
e|--------------------------------------------------------------------------------|
B|--------------------------------------------------------------------------------|
G|------4-----4h6p4-----4---------------------------------------------------------|
D|--------6-----------6----------4----4h6p4--------------1----------3-------------|
A|----------------------------6-----6---------6---4-----2-----2----4-----4--------|
E|---4----------------------------------------------------------------------------|

e|--------------------------------------------------------------------------------|
B|--------------------------------------------------------------------------------|
G|--------------------------------------------------------------------------------|
D|-------6----6h8-6-----4---------------------------------------------------------|
A|----6----6------------6---------------------------------------------------------|
E|--------------------------------------------------------------------------------|

************************************

| h  Hammer-on
| p  Pull-off

************************************
Suggest correction
Creating personal tab
Creating personal tab
You can edit any tab online and save it as your Personal.

You can edit, replace or remove any tab part or add personal notes – all changes will be seen only by you.

Personal tabs can be accessed anytime from any device, even offline.
Learn more »
comments
print report bad tab
2 comments total.
0 reply
ckalebholton 110 Aug 30, 2015 05:21 PM

Lack of accuracy. The notes don't follow the way it is played in the song. I I I I I I I I I

0 reply
damr 59 Feb 16, 2016 10:45 PM

If you play along the youtube video, it should be at the 6th fret, where it sounds exactly like the original
the melody isn't very accurate either

guest
You may want to rate the tab now too:
select rating
Wanna post a correction for this tab? Suggest correction