Oops, an error
Loading. Please wait.

Blurred Lines Tab

version 1
version 1

Acoustic

Whole song

Interactive

22,331 views 12 this week
1 commentread comment
1 2 3 4 5
accurate
x 6
add to favorites
launch autoscroll
font size
0
reset
how to read this tab
guitar tuner
Tab Pro tools
  • play this tab
  • loop segment
  • change instrument
  • show fretboard
  • metronome
×
Best way to learn
"Blurred Lines"
Autoscroll
slow
fast
+/-
esc
set tempo
stop
Contributor
Blurred Lines - Robin Thicke 
Tabbed by: ChrisRGuitar
E-mail: chrisrguitar@gmail.com

This is a fingerstyle tab version of Robin Thicke's Blurred Lines. If you want to hear
how the tab sounds you can go to
http://www.youtube.com/watch?v=9qe_gxQY9Gk&feature=share&list=UU51oWasgeqk7rdaZd1y4c2Q
to see a video performance of this version of the song.

I have created nearly 100 other similar fingerstyle arrangements of songs like this,
that you can email me at the address above to receive them free of charge. :) Good luck 
& I
hope you enjoy!

Tuning: Dropped D (DADGBe)

e|--------7--5--7-----7-----|-------7--5--------7-----|
B|--------------------------|-------------8--8--------|
G|--0-----------------------|-0-----------------------|
D|--------------------------|-------------------------|
A|--------------------------|-------------------------|
D|--------------------------|-------------------------|

e|--------7--5--7-----7-----|-------7--5--------7-----|
B|--------------------------|-------------8-----------|
G|--0-----------------------|-0-----------------------|
D|--------------------------|-------------------------|
A|--------------------------|-------------------------|
D|--------------------------|-------------------------|

E|--------------------------|-------------------------|
B|-----3--3--2--3--2--3-----|----3--3--2--3--2--3-----|
G|--------------------------|-------------------------|
D|--0-----------------------|-0-----------------------|
A|--------------------------|-------------------------|
D|--------------------------|-------------------------|

E|--------------------------|-------------------------|
B|-----3--3--2--3--2--3-----|-3-----------------------|
G|--------------------------|----53-5--30-3-----------|
D|--0-----------------------|----------------53-5-----|
A|--------------------------|-------------------------|
D|--------------------------|-------------------------|

e|--------------------------|-------------3-----------|
B|-----0--0-----0-----0-----|----0--0--------0--------|
G|-----------3-----3--------|----------3--------2--0--|
D|--------0-----------0-----|-------0-----------0-----|
A|--------------------------|-------------------------|
D|--5-----------5-----------|-5-----------5-----------|

e|--------------------------|-------------------------|
B|-----0--0-----0-----0-----|-------0-----0-----0-----|
G|-----------3-----3--------|----3-----3-----3-----0--|
D|--------0-----------0-----|-------0-----------0-----|
A|--------------------------|-------------------------|
D|--5-----------5--------3--|-5-----------5-----------|

e|--------------------------|-------------------------|
B|--------------------------|-------------------------|
G|-----2--2--1--2--1--2--1--|----2--2--1--2--1--2--1--|
D|--------0-----------0-----|-------0-----------0-----|
A|--------------------------|-------------------------|
D|--0-----------0-----------|-0-----------0-----------|

e|--------------------------|-------------------0--3--|
B|--------------------------|----0--0-----0--3--------|
G|-----2--2--1--2--1--2--1--|----------3--------------|
D|--------0-----------0-----|-------------------------|
A|--------------------------|-------3-----2-----0-----|
D|--0-----------0-----------|-0-----------------------|

e|--7-----7-----------------|-------------------------|
B|--0-----0-----------------|----------------------0--|
G|--0-----0--------------0--|----0--0--0--2--4-----0--|
D|--------------------0-----|----------------------0--|
A|--------------------------|-------------------------|
D|--5-----5-----------------|-5-----------------------|

e|--------------------------|-------------------------|
B|--------------------------|-------------------3--3--|
G|--------------------------|----0--0--0--2--4--------|
D|--------------------------|-------------------------|
A|--------------0--2--------|-------------------------|
D|-----5--5--5-----------3--|-5-----------------------|

e|--2-----2-----------------|-------------------------|
B|--3-----3-----------------|-------------------------|
G|--2-----2--------------0--|----2--2--2--4--5--------|
D|--------------------0-----|-------------------------|
A|--------------------------|-------------------------|
D|--0-----0-----------------|-0--------------------0--|

e|--------------------------|-------------------------|
B|--------------------------|-------------0--1--3--1--|
G|-----2--2--2--4--5--------|----22----2--------------|
D|--------------------------|-0-----------------------|
A|--------------------------|-------3-----2-----0-----|
D|--------------------------|-------------------------|

e|--7-----7-----------------|-------------------------|
B|--0-----0-----------------|----------------------0--|
G|--0-----0--------------0--|----0--0--0--2--4-----0--|
D|--------------------0-----|----------------------0--|
A|--------------------------|-------------------------|
D|--5-----5-----------------|-5-----------------------|

e|--------------------------|-------------------------|
B|--------------------------|-------------------3--3--|
G|--------------------------|----0--0--0--2--4--------|
D|--------------------------|-------------------------|
A|--------------0--2--------|-------------------------|
D|-----5--5--5-----------3--|-5-----------------------|

e|--2-----2-----------------|-------------------------|
B|--3-----3-----------------|-------------------------|
G|--2-----2--------------0--|----2--2--2--4--5--------|
D|--------------------0-----|-------------------------|
A|--------------------------|-------------------------|
D|--0-----0-----------------|-0--------------------0--|

e|--------------------------|-------------------------|
B|--------------------------|-------------0--1--------|
G|-----2--2--2--4--5--------|----2-----2--------------|
D|--------------------------|-0-----------------------|
A|--------------------------|-------3-----2-----0-----|
D|--------------------------|-------------------------|

e|--7--10-7-----8-----------|-7--10-7-----------------|
B|-----------10-------------|----------10-8-----10----|
G|--0-----------------9-----|-0-----------------------|
D|--------------------------|-------------------------|
A|--------------------------|-------------------------|
D|--------------------------|-------------------------|

e|--7--10-7-----8-----------|-------------------------|
B|-----------10-------------|-3--3--3--3--3--3--3--1--|
G|--0-----------------9-----|-------------------------|
D|--------------------------|-------------------------|
A|--------------------------|-------------------------|
D|--------------------------|-------------------------|

E|--------------------------|-------------------------|
B|--------------------------|-------------------------|
G|-----2--2--2--4--5--------|----2--2--2--4--5--------|
D|--------0-----------0-----|-------0-----------0-----|
A|--------------------------|-------------------------|
D|--0-----------0-----------|-0-----------0-----------|

E|--------------------------|-------------------------|
B|--------------------------|-------------------------|
G|-----2--2--2--4--5--------|----7-----5-----4-----2--|
D|--------0-----------0-----|-------------------------|
A|--------------------------|-5-----3-----2-----0-----|
D|--0-----------0-----------|-------------------------|

e|--------------------------|-------------3-----------|
B|-----0--0-----0-----0-----|----0--0--------0--------|
G|-----------3-----3--------|----------3--------2--0--|
D|--------0-----------0-----|-------0-----------0-----|
A|--------------------------|-------------------------|
D|--5-----------5-----------|-5-----------5-----------|

e|--------------------------|-------------------------|
B|-----0--0-----0-----0-----|-------0-----0-----0-----|
G|-----------3-----3--------|----3-----3-----3-----0--|
D|--------0-----------0-----|-------0-----------0-----|
A|--------------------------|-------------------------|
D|--5-----------5--------3--|-5-----------5-----------|

e|--------------------------|-------------------------|
B|--------------------------|-------------------------|
G|-----2--2--1--2--1--2--1--|----2--2--1--2--1--2--1--|
D|--------0-----------0-----|-------0-----------0-----|
A|--------------------------|-------------------------|
D|--0-----------0-----------|-0-----------0-----------|

e|--------------------------|-------------------0--3--|
B|--------------------------|----0--0-----0--3--------|
G|-----2--2--1--2--1--2--1--|----------3--------------|
D|--------0-----------0-----|-------------------------|
A|--------------------------|-------3-----2-----0-----|
D|--0-----------0-----------|-0-----------------------|

e|--7-----7-----------------|-------------------------|
B|--0-----0-----------------|----------------------0--|
G|--0-----0--------------0--|----0--0--0--2--4-----0--|
D|--------------------0-----|----------------------0--|
A|--------------------------|-------------------------|
D|--5-----5-----------------|-5-----------------------|

e|--------------------------|-------------------------|
B|--------------------------|-------------------3--3--|
G|--------------------------|----0--0--0--2--4--------|
D|--------------------------|-------------------------|
A|--------------0--2--------|-------------------------|
D|-----5--5--5-----------3--|-5-----------------------|

e|--2-----2-----------------|-------------------------|
B|--3-----3-----------------|-------------------------|
G|--2-----2--------------0--|----2--2--2--4--5--------|
D|--------------------0-----|-------------------------|
A|--------------------------|-------------------------|
D|--0-----0-----------------|-0--------------------0--|

e|--------------------------|-------------------------|
B|--------------------------|-------------0--1--3--1--|
G|-----2--2--2--4--5--------|----22----2--------------|
D|--------------------------|-0-----------------------|
A|--------------------------|-------3-----2-----0-----|
D|--------------------------|-------------------------|

e|--7-----7-----------------|-------------------------|
B|--0-----0-----------------|----------------------0--|
G|--0-----0--------------0--|----0--0--0--2--4-----0--|
D|--------------------0-----|----------------------0--|
A|--------------------------|-------------------------|
D|--5-----5-----------------|-5-----------------------|

e|--------------------------|-------------------------|
B|--------------------------|-------------------3--3--|
G|--------------------------|----0--0--0--2--4--------|
D|--------------------------|-------------------------|
A|--------------0--2--------|-------------------------|
D|-----5--5--5-----------3--|-5-----------------------|

e|--2-----2-----------------|-------------------------|
B|--3-----3-----------------|-------------------------|
G|--2-----2--------------0--|----2--2--2--4--5--------|
D|--------------------0-----|-------------------------|
A|--------------------------|-------------------------|
D|--0-----0-----------------|-0--------------------0--|

e|--------------------------|-------------------------|
B|--------------------------|-------------0--1--------|
G|-----2--2--2--4--5--------|----2-----2--------------|
D|--------------------------|-0-----------------------|
A|--------------------------|-------3-----2-----0-----|
D|--------------------------|-------------------------|

e|--------------------------|-------------------------|
B|--------------------------|-------------------------|
G|--0-----------------------|-------------------------|
D|--------------------------|-------------------------|
A|--------------------------|-------------------------|
D|--5-----------------------|-------------------------|
comments
print report bad tab
1 comment total.
0 reply
compizzz wrote on August 18 2013, 12:14 am

Please made guitar pro version)

I want to post or [tab]
guest
You may want to rate the tab now too:
select rating
Please do not post tabs as comments. Select "correction" instead!