Oops, an error
Loading. Please wait.

Blurred Lines Bass

version 1
version 1

Whole song

Interactive

6,511 views 30 this week
no commentswrite comment
1 2 3 4 5
1 last vote to show rating
add to favorites
launch autoscroll
font size
0
reset
guitar tuner
×
Best way to learn
"Blurred Lines"
Autoscroll
slow
fast
+/-
esc
set tempo
stop
Author
Difficulty
novice
-------------------------------------------------------------------------------
                             BLURRED LINES - Robin Thicke
-------------------------------------------------------------------------------
Tabbed by: linkme620
E-mail: linkme620@gmail.com

Tuning: standard


              coda
G|-0--0--0---|---------------------------------------------------------------|
D|-----------|---0--3--5-(5)----0--3--5-(5)---0--3--5----5-5-5-3-------------|
A|-----------|------------------------------------------------------5--------|
E|-----------|---------------------------------------------------------------|

G|---------------------------------------------------------------------------|
D|---------------------------------------------------------------(5)---------|
A|----2-3-5-(5)----2-3-5-(5)----2--3--5-5---3-3---2-2---0-0------------------|
E|-----------------------------------------------------------3---------------|

:repeat from coda:

tones in brackets aren't necessary, i just think it sounds better.

enjoy :D
Suggest correction
Give kudos to tab author, rate the tab!
1 2 3 4 5
comments
print report bad tab
guest
You may want to rate the tab now too:
select rating
Wanna post a correction for this tab? Suggest correction