Oops, an error
Loading. Please wait.

Blurred Lines bass

version 3
version 3

Whole song

Interactive

26,416 views 9 this week
1 commentread comment
1 2 3 4 5
x 20
add to favorites
×
Save as Personal and add changes to this tab that will be seen only by you. Learn more ›
×
You can save this tab as Personal to edit and correct it or add notes. All changes will be seen only by you. Learn more »
launch autoscroll
font size
0
reset
guitar tuner
edit
Autoscroll
slow
fast
+/-
esc
set tempo
stop
Author
Difficulty
Intro

G----------|
D--5-5-5---|
A----------|
E----------|


Verse/Chorus

G------------5-----------------------------------------|
D--5---5-5-----5-5-------3-5----5-5--------------------|
A----------------------5------------5---5-5-----5-5----|
E------------------------------------------------------|

G-------7\--5\--0\--2--|
D----------------------|
A---5-5---3---2---0----|
E----------------------|

Repeat for the rest of the song. These notes are played staccato, except for the 
descending octaves at the end of the main riff - these notes are legato. There is a 4 measure 
break in the bass line after T.I.'s part.



tabbed by www.matthewzarder.com

            
            
Suggest correction
Creating personal tab
Creating personal tab
You can edit any tab online and save it as your Personal.

You can edit, replace or remove any tab part or add personal notes – all changes will be seen only by you.

Personal tabs can be accessed anytime from any device, even offline.
Learn more »
comments
print report bad tab
1 comment total.
+4 reply
scottguman 10 Aug 28, 2013 06:37 AM

Key is G - 1 sharp - F#

Verse/Chorus

G------------5-----------------------------------------|
D--5---5-5-----5-5-------4-5----5-5--------------------|
A----------------------5------------5---5-5-----5-5----|
E------------------------------------------------------|

G-------7\--5\--4\--2--|
D----------------------|
A---5-5---3---2---0----|
E----------------------|

guest
You may want to rate the tab now too:
select rating
Wanna post a correction for this tab? Suggest correction