Oops, an error
Loading. Please wait.

Cry No More ukulele

137 views 1 this week
no commentswrite comment
1 2 3 4 5
3 more votes to show rating
add to favorites
×
Save as Personal and add changes to this tab that will be seen only by you. Learn more ›
×
You can save this tab as Personal to edit and correct it or add notes. All changes will be seen only by you. Learn more »
launch autoscroll
font size
0
reset
transpose
0
reset
simplify chords
display chords
guitar tuner
edit
Autoscroll
slow
fast
+/-
esc
set tempo
stop
Strumming
There is no strumming pattern for this song yet. and get +5 IQ
#----------------------------------PLEASE NOTE---------------------------------#
#This file is the author's own work and represents their interpretation of the #
#song. You may only use this file for private study, scholarship, or research. #
#------------------------------------------------------------------------------##

Song: Cry No More - Robin Thicke
Tabbed By: Edward Johnson (ed@softalk.co.uk)
Date: 17/12/08
Comments:  I heard the song for the first time today and had a quick look around
but couldn't find the tabs. Luckily it's easy and just sort of came to me.  
This is my first submitted tab so hope you can understand it. Enjoy.. Ed

----------------------------------------------------------------------------------
Chords:

Intro

        Dmaj7                Amaj7        
      x x 0 6 7 5          x 0 6 6 5 0   

vERSE

        DmAJ7/F6             AmAJ7/C6      
      x x 0 2 1 1          x 0 2 0 1 X   

cHORUS

        Dmaj7                Amaj7        
      x x 0 3 3 3          x 0 2 1 2 0   

 
----------------------------------------------------------------------------------

(E A D G B E) - 'Standard'


Intro

E|-5----------------0----------------|
B|-7----------------5----------------|
G|-6----------------6----------------|
D|-0----------------6----------------|
A|------------------0----------------|
E|-----------------------------------|

If you listen here you'll notice he lifts his finger off the top string on the last
strum of the first chord before the change and plays the string open.


Verse

|-1---------------------------------|
|-1----------------1----------------|
|-2----------------0----------------|
|-0----------------2----------------|
|------------------0----------------|
|-----------------------------------|



Chorus

|-3----------------0----------------|
|-3----------------2----------------|
|-3----------------1----------------|
|-0----------------2----------------|
|------------------0----------------|
|-----------------------------------|


Suggest correction
Creating personal tab
Creating personal tab
You can edit any tab online and save it as your Personal.

You can edit, replace or remove any tab part or add personal notes – all changes will be seen only by you.

Personal tabs can be accessed anytime from any device, even offline.
Learn more »
Give kudos to tab author, rate the tab!
1 2 3 4 5
comments
print report bad tab
guest
Wanna post a correction for this tab? Suggest correction