Oops, an error
Loading. Please wait.

Lost Without You Tab

version 1
version 1

Whole song

Interactive

Video

23,858 views 75 this week
1 commentread comment
1 2 3 4 5
x 5
add to favorites
launch autoscroll
font size
0
reset
how to read this tab
guitar tuner
Autoscroll
slow
fast
+/-
esc
set tempo
stop
Help us to improve Ultimate-Guitar.com Take our survey!
×
Difficulty
novice
I've been looking for the tabs to this song for a long time and it seems no one has 
it at all so im gonna give it a shot...This is my first tab EVER so please be easy on 
it goes, this is the main beat that i can figure out so far...


Standard Tuning:

e:----------------------------------------------------------------|
B:---6-6-6-6-6-6-6-6-6-6-6-6-6-6-6-6-5-5-5-5-5-5-5-5-5-5-5-5------|
G:---5-5-5-5-5-5-5-5-4-4-4-4-4-4-4-4-5-5-5-5-5-5-5-5-3-3-3-3------|
D:----------------------------------------------------------------|
A:----------------------------------------------------------------|
E:----------------------------------------------------------------|


e:----------------------------------------------------------------|
B:---3-4-5--------------------------------------------------------|
G:---3-4-5--------------------------------------------------------|
D:----------------------------------------------------------------|
A:----------------------------------------------------------------|
E:----------------------------------------------------------------|


so, there it is...the main rhythm to "lost without you" by robin thicke..please feel 
to comment or give suggestions or post a tab so we can get the whole song tabbed..
Suggest correction
comments
print report bad tab
1 comment total.
0 reply
T-T G 10 Jun 09, 2009 06:20 PM

pretty good

guest
You may want to rate the tab now too:
select rating
Wanna post a correction for this tab? Suggest correction