Oops, an error
Loading. Please wait.

Lost Without You Tab

version 1
version 1

Whole song

Interactive

Video

129,178 views 39 this week
7 commentsread comments
1 2 3 4 5
excellent!
x 12
add to favorites
launch autoscroll
font size
0
reset
how to read this tab
guitar tuner
Tab Pro tools
  • play this tab
  • loop segment
  • change instrument
  • show fretboard
  • metronome
×
Best way to learn
"Lost Without You"
Autoscroll
slow
fast
+/-
esc
set tempo
stop
Contributor
Fingerplucked

E:---------------------------------------------------------------:
B:66-6-6--66-6-6--66-6-6--66-6-6--55-5-5--55-5-5--55-5-5---------:
G:55-5-5--55-5-5--44-4-4--44-4-4--44-4-4--44-4-4--55-5-5--77-8-9-:
D:--------------------------------------------------------66-7-8-:
A:55-5-5--55-5-5--55-5-5--55-5-5--33-3-3--33-3-3--00-0-0--88-9-10:
E:---------------------------------------------------------------:

INDIVIDUAL SOLO BITS :: Not In Playing Order

E------------------------::---------------------------::-------------::
B12-13-10-12-8-10-6-8-5--::10h12h13p12-10-8-6-5-3-1---::8-6-5-3-5p3--::
G------------------------::---------------------------::-------------::
D------------------------::---------------------------::-------------::
A------------------------::---------------------------::-------------::
E------------------------::---------------------------::-------------::

E---------------::---------------::-------------------|
B1-3h5p3-1h3h5--::8-8--6-5-3-5h65::-1-3-5-3-1-3-5h6p5-|
G---------------::---------------::0------------------|
D---------------::---------------::-------------------|
A---------------::---------------::-------------------|
E---------------::---------------::-------------------|
comments
print report bad tab
7 comments total. Showing first comments.
0 reply
Estefano wrote on March 11 2007, 07:52 pm

dddd

0 reply
Estefano wrote on March 11 2007, 07:52 pm

It's this the solo at the end of the song?

+1 reply
flanmchaos wrote on March 12 2007, 12:49 am

the solo bits are not connected
they are played in between parts of the song around the middle towards the end

I want to post or [tab]
guest
You may want to rate the tab now too:
select rating
Please do not post tabs as comments. Select "correction" instead!