Oops, an error
Loading. Please wait.

Lost Without You Tab

version 3
version 3

Whole song

Interactive

Video

143,917 views 69 this week
3 commentsread comments
1 2 3 4 5
x 28
add to favorites
launch autoscroll
font size
0
reset
how to read this tab
guitar tuner
×
Best way to learn
"Lost Without You"
Autoscroll
slow
fast
+/-
esc
set tempo
stop
Author
Difficulty
novice
Robin Thicke - Lost Without You                   tabbed by: tuluks
-------------------------------

i saw other tabs, hard to play, so i tabbed an easier version but exact sound.
an alternate version is at the end to this tab at the bottom.
hope you all enjoy.


Intro/Verse (played throughout whole song)
-----------

     Dm7                                   G7
e|---1--1---1---1---|---1--1---1---1---|---1--1---1---1---|---1--1---1---1---|
B|---1--1---1---1---|---1--1---1---1---|---0--0---0---0---|---0--0---0---0---|
G|------------------|------------------|------------------|------------------|
D|---0--0---0---0---|---0--0---0---0---|---0--0---0---0---|---0--0---0---0---|
A|------------------|------------------|------------------|------------------|
E|------------------|------------------|------------------|------------------|

     C7Maj                                 F7Maj
e|---0--0---0---0---|---0--0---0---0---|---0--0---0---0---|------------------|
B|---0--0---0---0---|---0--0---0---0---|---1--1---1---1---|----3----5---6----|
G|------------------|------------------|------------------|----4----5---7----|
D|------------------|------------------|---3--3---3---3---|----3----5---7----|
A|---3--3---3---3---|---3--3---3---3---|------------------|------------------|
E|------------------|------------------|------------------|------------------|


Chorus:
-------

I’m lost without u         \
Can’t help myself           \ 
How does it feel            / (x2)
To know that I love u baby /

Verse 1:
-------

Tell me how u love me more 
And how u think I’m sexy baby 
That u don’t want nobody else 
U don’t want this guy u don’t want that guy u wanna 
Touch yourself when u see me 
Tell me how u love my body 
And how I make u feel baby 

U wanna roll with me u wanna hold with me 
U wanna stay warm and get out of the cold with me 
I just love 2 hear u say it 
It makes a man feel good baby 
Tell me u depend on me 
I need To  hear it 

(repeat Chorus x2)

verse 2:
--------

Baby you’re the perfect shape 
Baby you’re the perfect weight 
Treat me like my birthday
I want it this way I want it that way I want it
e|--7-8-5-7---5--------------------|
B|----------8---6-8-5-6---5-5------|
G|----------------------7-----7-5~-|
D|---------------------------------|
A|---------------------------------|
E|---------------------------------|
  
Tell me u don’t want me To stop 
Tell me it would break your heart 
That u love me and all my dirty 
U wanna roll with me u wanna hold with me 
U wanna make fires and get Norwegian wood with me 
I just love To  hear u say it
		e|---------------------------|
		B|---------------------------|
		G|---5--7--9--7h9p7p5--7--9--|
		D|---------------------------|
		A|---------------------------|
		E|---------------------------|
 
It makes a man feel good baby 

Chorus:
-------

I’m lost without u 
Can’t help myself 
How does it feel 
To know that I love you baby

I’m lost without u 
Can’t help myself 
How does it feel
e|----------------------------|
B|-----------5--8-------------|
G|--0--5--7--------5--7--7/9--|
D|----------------------------|
A|----------------------------|
E|----------------------------| 

To know that I love u baby 
e|--0h1p0h1p0h1p0h1p0--|
B|---------------------|
G|---------------------| (do a sort of 'trill' here)
D|---------------------|
A|---------------------|
E|--0------------------|

Verse 3:
-------

'Cos you may tell me every morning 
Ooooooh Alright babe 
Aaah yeah 
Oh baby 
Oh Darling 
Ahh yeah 

Chorus:
-------

I’m lost without u 
Can’t help myself 
How does it feel 
To know that I 
love you baby
e|--5-7-8-7h8p7-5--------------------------|
B|----------------8-6-5--------------------|
G|----------------------7-5-4-5-7--5p4-5~--|
D|-----------------------------------------|
A|-----------------------------------------|
E|-----------------------------------------|

I’m lost without u 
Can’t help myself 
How does it feel
e|----------------------------|
B|-----------5--8-------------|
G|--0--5--7--------5--7--7/9--|
D|----------------------------|
A|----------------------------|
E|----------------------------|

Outro:
------

Ooooh Yeah 
Oh baby
e|---------------------|
B|--8--6--5-----5------|
G|-----------7-----7---|
D|---------------------|
A|---------------------|
E|---------------------|  
Oh darling 
Ah yeah. Right 
Oh baby 
Oh darling 
Oooh Hoo baby.
e|----------------------------|
B|-----------5----------------|
G|--0--5--7-----7--5--7--7/9--|
D|----------------------------|
A|----------------------------|
E|----------------------------|
 
All right, right right

(here onwards is the ending music)
e|------------------------|
B|--8--8p6--5-----5h6--5--|
G|-------------7----------|
D|------------------------|
A|------------------------|
E|------------------------|

e|---------------------------|
B|-----------5--6--5h6p5-----|
G|--0--5--7---------------7--|
D|---------------------------|
A|---------------------------|
E|---------------------------|

****************************************************
alternate way to play
---------------------

     Dm7                                   G7
e|------------------|------------------|------------------|------------------|
B|---6--6---6---6---|---6--6---6---6---|---6--6---6---6---|---6--6---6---6---|
G|---5--5---5---5---|---5--5---5---5---|---4--4---4---4---|---4--4---4---4---|
D|------------------|------------------|------------------|------------------|
A|---5--5---5---5---|---5--5---5---5---|---5--5---5---5---|---5--5---5---5---|
E|------------------|------------------|------------------|------------------|

     C7Maj                                 F7Maj
e|------------------|------------------|------------------|------------------|
B|---5--5---5---5---|---5--5---5---5---|---5--5---5---5---|----3----5---6----|
G|---4--4---4---4---|---4--4---4---4---|---5--5---5---5---|----4----5---7----|
D|------------------|------------------|---3--3---3---3---|----3----5---7----|
A|---3--3---3---3---|---3--3---3---3---|------------------|------------------|
E|------------------|------------------|------------------|------------------|

that be all mates!
cheers!

kid©2007™
Suggest correction
comments
print report bad tab
3 comments total.
0 reply
harry525 10 Apr 10, 2007 08:43 AM

nice job!

0 reply
heyitsjustimbo 30 Dec 17, 2008 09:16 AM

sweet

-1 reply
backroll1080 10 Mar 06, 2013 04:03 PM

you don't play flamenco guitar parts with open strings. c'mon man

guest
You may want to rate the tab now too:
select rating
Wanna post a correction for this tab? Suggest correction