Oops, an error
Loading. Please wait.

Bluebird Tab

2,671 views 1 this week
no commentswrite comment
1 2 3 4 5
please rate
add to favorites
launch autoscroll
font size
0
reset
how to read this tab
guitar tuner
Autoscroll
slow
fast
+/-
esc
set tempo
stop
Help us to improve Ultimate-Guitar.com Take our survey!
×
Author
timn62 52
-------------------------------------------------------------------------------
                             BLUEBIRD - Robin Trower
-------------------------------------------------------------------------------
Tabbed by:timn62
Email:timn_62@yahoo.com

Tuning: Tune down 1/2 Step to Eb

Killer tune! I play this on my acoustic so most the chorus I just strum
chords versus sliding up and down (if you've heard the song, you know what
I mean)


Intro                                    AbMin(2X)  E (2X) 

e|------0--|----0---|----0--|-----0-----|-4------|-0------|
B|-----2-0-|---0-0--|---0---|----6-0----|-4------|-2p0----|
G|-----1---|---2----|---4-4/6---0-------|-4------|-1------|
D|----2----|--4-----|--4----|---7-------|-6------|-2------|
A|---2-----|-4------|-5-----|--7--------|-6------|-2------|
E|--0------|0-------|0------|-0----(4X)-|-4------|-0------| 

  1-2-3-4   1-2-3-4  1-2-3-4   1-2-3-4   1-2-3-4   1-2-3-4


Intro (cont.)

  AbMin(2X)   GbMin    AMaj BMaj   E (4X)

e|--4------|--2------|-5-5-7-7--|--0-----|
B|--4------|--2------|-5-5-7-7--|--2p0---|
G|--4------|--2------|-6-6-8-8--|--1-----|
D|--6------|--4------|-7-7-9-9--|--2-----|
A|--6------|--4------|-7-7-9-9--|--2-----|
E|--4------|--2------|-5-5-7-7--|--0-----|

  1-2-3-4    1-2-3-4   1-2-3-4   1-2-3-4



Sitting in the wood alone, on silver tree that turn to stone

e|------0---|------0---|------0--|------0-----|
B|-----2-0--|-----0-0--|-----0---|-----6-0----|
G|-----1----|-----2----|-----4-4/6----0-------|
D|----2-----|----4-----|----4----|----7-------|
A|---2------|---4------|---5-----|---7--------|
E|--0-------|--0-------|--0------|--0---------| 

   1-2-3-4    1-2-3-4    1-2-3-4    1-2-3-4   


Branches growing overhead, make your house and featherbead

e|------0---|------0---|------0--|------0-----|
B|-----2-0--|-----0-0--|-----0---|-----6-0----|
G|-----1----|-----2----|-----4-4/6----0-------|
D|----2-----|----4-----|----4----|----7-------|
A|---2------|---4------|---5-----|---7--------|
E|--0-------|--0-------|--0------|--0---------| 

   1-2-3-4    1-2-3-4    1-2-3-4    1-2-3-4


Shiny beak and shiny eyes, shiny winter paradise

e|------0---|------0---|------0--|------0-----|
B|-----2-0--|-----0-0--|-----0---|-----6-0----|
G|-----1----|-----2----|-----4-4/6----0-------|
D|----2-----|----4-----|----4----|----7-------|
A|---2------|---4------|---5-----|---7--------|
E|--0-------|--0-------|--0------|--0---------| 

   1-2-3-4    1-2-3-4    1-2-3-4    1-2-3-4


Singing to the setting sun, praying for the day that's done

e|------0---|------0---|------0--|------0-----|
B|-----2-0--|-----0-0--|-----0---|-----6-0----|
G|-----1----|-----2----|-----4-4/6----0-------|
D|----2-----|----4-----|----4----|----7-------|
A|---2------|---4------|---5-----|---7--------|
E|--0-------|--0-------|--0------|--0---------| 

   1-2-3-4    1-2-3-4    1-2-3-4    1-2-3-4


Chorus

Growing quieter as you watch the snow, falling down, down, down, down

   AbMin    AbMin         E         E
e|--4------|--4------|--0------|--0------|
B|--4------|--4------|--2p0----|--2p0----|
G|--4------|--4------|--1------|--1------|
D|--6------|--6------|--2------|--2------|
A|--6------|--6------|--2------|--2------|
E|--4------|--4------|--0------|--0------| 

   1-2-3-4   1-2-3-4   1-2-3-4   1-2-3-4


If you want to know this heart, listen, listen to the Bluebird sing

AbMin(2X)   GbMin    AMaj BMaj   E (4X)

e|--4------|--2------|-5-5-7-7--|--0-----|
B|--4------|--2------|-5-5-7-7--|--2p0---|
G|--4------|--2------|-6-6-8-8--|--1-----|
D|--6------|--4------|-7-7-9-9--|--2-----|
A|--6------|--4------|-7-7-9-9--|--2-----|
E|--4------|--2------|-5-5-7-7--|--0-----|

  1-2-3-4    1-2-3-4   1-2-3-4   1-2-3-4


If I had a voice like that, melody like summer wine

e|------0---|------0---|------0--|------0-----|
B|-----2-0--|-----0-0--|-----0---|-----6-0----|
G|-----1----|-----2----|-----4-4/6----0-------|
D|----2-----|----4-----|----4----|----7-------|
A|---2------|---4------|---5-----|---7--------|
E|--0-------|--0-------|--0------|--0---------| 

   1-2-3-4    1-2-3-4    1-2-3-4    1-2-3-4


Come sunshine islands I would bring, music to the new born king

e|------0---|------0---|------0--|------0-----|
B|-----2-0--|-----0-0--|-----0---|-----6-0----|
G|-----1----|-----2----|-----4-4/6----0-------|
D|----2-----|----4-----|----4----|----7-------|
A|---2------|---4------|---5-----|---7--------|
E|--0-------|--0-------|--0------|--0---------|
 

   1-2-3-4    1-2-3-4    1-2-3-4    1-2-3-4


Chorus

Guitar Solo - Playing the same progression to the chorus

Chorus

Repeat the same "progression" while Doo-Dooing, and soloing out ...


| /  slide up
| \  slide down
| h  hammer-on
| p  pull-off
| ~  vibrato
| +  harmonic
| x  Mute note
===============================================================================
Suggest correction new What's this?
You can suggest a correction to this tab. Community and Mods will review your correction and vote to approve or reject it.
comments
We did not receive enough feedback on this tab! Please rate:
print report bad tab
1 2 3 4 5
guest
You may want to rate the tab now too:
select rating
Please do not post tabs as comments. Select "correction" instead!