Oops, an error
Loading. Please wait.

Bridge Of Sighs Tab

version 2
version 2

Whole song

Interactive

79,425 views 123 this week
9 commentsread comments
1 2 3 4 5
x 50
add to favorites
launch autoscroll
font size
0
reset
how to read this tab
guitar tuner
Autoscroll
slow
fast
+/-
esc
set tempo
stop
Help us to improve Ultimate-Guitar.com Take our survey!
×
Author
Difficulty
intermediate
**Updates: 8/30/07 Updated Fills


[Intro]
e|-------------------------------------------------------------------------------|
B|-------------------------------------------------------------------------------|
G|-------------------------------------------------------------------------------|
D|-----0h2p0h2p0h2p0h2p0h2p0........---------------------------------------------|
A|-------------------------------------------------------------------------------|
E|-------------------------------------------------------------------------------|
                                                                                           
e|--------------3---------3-------------------------0--|---------------------------|
B|--------------3---------3---2b3r2-----------------0--|------8--------------------|
G|--------------0-------------2b3r2--------------------|----7---9------------------|
D|-----------------------------------------------------|--/9-----------------------|
A|-------1h2-----------------------------------2-------|---------------------------|
E|-0------------------0---------------------0----------|---------------------------|
                                                         
e|-------------3----------3-------------------------0--|---------------------------|
B|-------------3----------3---2b3r2-----------------0--|------5---5----------------|
G|-------------0--------------2b3r2--------------------|----/7--7---6--------------|
D|-----------------------------------------------------|--------------5------------|
A|-------1h2-----------------------------------2-------|---------------------------|
E|-0------------------0---------------------0----------|---------------------------|

e|-------------3----------3-------------------------0--|---------------------------|
B|-------------3----------3---2b3r2-----------------0--|-----0h3p0-----------------|
G|-------------0--------------2b3r2--------------------|-----------2br-------------|
D|-----------------------------------------------------|---------------------------|
A|-------1h2-----------------------------------2-------|---------------------------|
E|-0------------------0---------------------0----------|---------------------------|

e|--------------3---------3-------------------------0--|---------------------------|
B|--------------3---------3---2b3r2-----------------0--|---------8-----------------|
G|--------------0-------------2b3r2--------------------|----/7-9---9---------------|
D|-----------------------------------------------------|---------------------------|
A|-------1h2-----------------------------------2-------|---------------------------|
E|-0------------------0---------------------0----------|---------------------------|


e|-------------3----------3-------------------------0--|--------------------------|
B|-------------3----------3---2b3r2-----------------0--|---0h3p0------------------|
G|-------------0--------------2b3r2--------------------|---------2/4--2br---------|
D|-----------------------------------------------------|--------------------------|
A|-------1h2-----------------------------------2-------|--------------------------|
E|-0------------------0---------------------0----------|--------------------------|

e|--------------3---------3-------------------------0--|-------------------------|
B|--------------3---------3---2b3r2-----------------0--|--------8----------------|
G|--------------0-------------2b3r2--------------------|---/7-9---9--------------|
D|-----------------------------------------------------|-------------------------|
A|-------1h2-----------------------------------2-------|-------------------------|
E|-0------------------0---------------------0----------|-------------------------|

e|-------------3----------3-------------------------0--|---------------------------| 
B|-------------3----------3---2b3r2-----------------0--|-------2b3-2b3-2b3r3-------|
G|-------------0--------------2b3r2--------------------|-0h2p0---------------------|
D|-----------------------------------------------------|--------------------2h3p2--|
A|-------1h2-----------------------------------2-------|---------------------------|
E|-0------------------0---------------------0----------|---------------------------|


e|-------------3----------3-------------------------0--|---------------------------| 
B|-------------3----------3---2b3r2-----------------0--|---------------------------|
G|-------------0--------------2b3r2--------------------|-------2---2b5-------------|
D|-----------------------------------------------------|---2h4---------------------|
A|-------1h2-----------------------------------2-------|---------------------------|
E|-0------------------0---------------------0----------|---------------------------|

[Chorus]
Cmaj7        Asus2        G        B7      Cmaj7   B7
e|--0------------------------------------------0---------------------------------|
B|--0------------0--------------------0--------0-----0-------0-------------------|
G|--0------------2-----------0--------2--------0-----2-------2-------------------|
D|--2------------2-----------0--------1--------2-----1-------1-------------------|
A|--3------------0-----------2--0--1--2--------3-----2---2---2-------------------|
E|---------------------------3---------------------------------------------------|

e|-------------3----------3-------------------------0--|---------------------------| 
B|-------------3----------3---2b3r2-----------------0--|----------2b5r-------------|
G|-------------0--------------2b3r2--------------------|---0h2p0-------------------|
D|-----------------------------------------------------|---------------------------|
A|-------1h2-----------------------------------2-------|---------------------------|
E|-0------------------0---------------------0----------|---------------------------|


e|-------------3----------3-------------------------0--|---------------------------| 
B|-------------3----------3---2b3r2-----------------0--|----------2b3r-------------|
G|-------------0--------------2b3r2--------------------|---0h2p0-------------------|
D|-----------------------------------------------------|---------------------------|
A|-------1h2-----------------------------------2-------|---------------------------|
E|-0------------------0---------------------0----------|---------------------------|

e|-------------3----------3-------------------------0--|--- -----------------------|
B|-------------3----------3---2b3r2-----------------0--|---------------------------|
G|-------------0--------------2b3r2--------------------|---4-0-2/4\2br0------------|
D|-----------------------------------------------------|----------------2p0--------|
A|-------1h2-----------------------------------2-------|---------------------------|
E|-0------------------0---------------------0----------|---------------------------|


e|-------------3----------3-------------------------0--|---------------------------| 
B|-------------3----------3---2b3r2-----------------0--|---------------------------|
G|-------------0--------------2b3r2--------------------|---------------------------|
D|-----------------------------------------------------|-------7----7--------------|
A|-------1h2-----------------------------------2-------|----/9----9----------------|
E|-0------------------0---------------------0----------|---------------------------|


e|-------------3----------3-------------------------0--|---------------------------| 
B|-------------3----------3---2b3r2-----------------0--|---------------------------|
G|-------------0--------------2b3r2--------------------|-----------7---7b(9)r------|
D|-----------------------------------------------------|-------7h9-----------------|
A|-------1h2-----------------------------------2-------|---------------------------|
E|-0------------------0---------------------0----------|---------------------------|


e|-------------3----------3-------------------------0--|---------------------------| 
B|-------------3----------3---2b3r2-----------------0--|---------------------------|
G|-------------0--------------2b3r2--------------------|-------7---7--7b(9)r-------|
D|-----------------------------------------------------|----/9---9-----------------|
A|-------1h2-----------------------------------2-------|---------------------------|
E|-0------------------0---------------------0----------|---------------------------|


Cmaj7        Asus2        G        B7      Cmaj7   B7

e|--0------------------------------------------0---------------------------------|
B|--0------------0--------------------0--------0-----0-------0-------------------|
G|--0------------2-----------0--------2--------0-----2-------2-------------------|
D|--2------------2-----------0--------1--------2-----1-------1-------------------|
A|--3------------0-----------2--0--1--2--------3-----2---2---2-------------------|
E|---------------------------3---------------------------------------------------|


e|-------------3----------3-------------------------0--| 
B|-------------3----------3---2b3r2-----------------0--|
G|-------------0--------------2b3r2--------------------|
D|-----------------------------------------------------|
A|-------1h2-----------------------------------2-------|
E|-0------------------0---------------------0----------|

[Outro]
e|---------------------------------------------------------------------------------|
B|---------------------------------------------------------------------------------|
G|---------------------------------------------------------------------------------|
D|----2---4--4s5-------7b8r7----5-------------2--4--4s5------7b8r7-----------------|x6
A|-----------------5-7----------------7-----------------5--7---------5--5h7--------|
E|---------------------------------------------------------------------------------|



************************************
 
/slide up
\ slide down
b bend
br bend realese
tr trill
h hammer on
p pull off
~ vibrato

************************************
Suggest correction
comments
print report bad tab
9 comments total. Showing first comments.
+4 reply
17-Zen 10 Aug 15, 2007 02:38 PM

Seems to me like a couple of your fills are a bit off, try these and see if they sound more accurate.
|------------|----------------|-------------|------------|
|-------8----|-----5---5------|--0h3p0------|-------8----|
|-----7---9--|--/7---7---6----|--------2br--|--/7-9---9--|
|--/9--------|-------------5--|-------------|------------|
|------------|----------------|-------------|------------|
|------------|----------------|-------------|------------|

|-----------------|------------|--------------------|-----------------|
|--0h3p0----------|-------8----|--------------------|------5-3-0------|
|--------2/4-2br--|--/9-7---9--|--4-0-2/4\2br0------|--0/4-----0------|
|-----------------|------------|---------------2p0--|-----------------|
|-----------------|------------|--------------------|-----------------|
|-----------------|------------|--------------------|-----------------|

0 reply
BassicDubs 186 Dec 27, 2007 01:39 PM

as well the outro
is

|-----|
|-----|
|-----|
|-2/4p0-4/5-----7b8r7
-5-----|
|-----5-7-----5/7-|
|-----|

+1 reply
Rounder01 40 Apr 26, 2008 05:25 PM

Tab = excellent

Song = Excellent...

guest
You may want to rate the tab now too:
select rating
Wanna post a correction for this tab? Suggest correction