Oops, an error
Loading. Please wait.

I Cant Wait Much Longer Tab

version 1
version 1

Whole song

5,498 views 24 this week
7 commentsread comments
1 2 3 4 5
accurate
x 3
add to favorites
launch autoscroll
font size
0
reset
how to read this tab
guitar tuner
Autoscroll
slow
fast
+/-
esc
set tempo
stop
Help us to improve Ultimate-Guitar.com Take our survey!
×
#----------------------------------PLEASE NOTE---------------------------------#
#This file is the author's own work and represents their interpretation of the #
#song. You may only use this file for private study, scholarship, or research. #
#------------------------------------------------------------------------------##
#

Date: Sat, 14 Sep 1996 13:00:13 -0400 (EDT)
From: Hamid Samadani 
Subject: TAB: I Can't Wait Much Longer by Robin Trower


From: samadani@openmarket.com (Hamid Samadani)

"I Can't Wait Much Longer" from the 1975 Chrysalis release "Robin Trower Live"
by Robin Trower and Miller - tabbed by Hamid Samadani (samadani@openmarket.com)

Notes:

 This is my first attempt at tablature!  I'm not using a program, simply a text
editor.  When following along with the CD, I find that I play one fret lower
than
what I have tabbed below.  And oh by the way, I have only figured out 50% of
this
tune.  I really love the song.  I hope that someone finds my humble attempt and
is motivated to submit a more credible and complete version.

^     - bend
h     - hammer
r     - release bend
=     - hold note
/     - slide up
\     - slide down
...   - carry over to next staff
u     - undetermined fret from which to slide up or down
(x^y) - xth fret bent to yth fret as one continuous sound

(Begin Fig. A. Play this staff 3X in the intro and twice during each verse.)
E---------------------------------------------------------------------------|
B--------12====12/14--------7====7------------------------------------------|
G--------12====12/14--------7====7------------------------------------------|
D--------12====12/14--------7====7--------7---------------------------------|
A-----14------------------9---------7--9-----9--7---------------------------|
E--12------------------7----------------------------------------------------|


                                                                 (End Fig. A)
E---------------------------------------------------------------------------|
B--------12====12/14--------7====7------------------------------------------|
G--------12====12/14--------7====7------------------------------------------|
D--------12====12/14--------7====7--------7---------------------------------|
A-----14------------------9---------7--9-----9--7---------------4-5--5h7----|
E--12------------------7------------------------------9--5==5==-------------|

This is harder than I thought.  Hope it's enough to get someone motivated to
submit
a more complete version.
------------------------------------------
Hamid Samadani, Open Market, Inc., Washington, DC  USA
Voice: 202.546-5785   Fax: 202.543.8868
samadani@openmarket.com  http://www.openmarket.com
Suggest correction
Give kudos to tab author, rate the tab!
1 2 3 4 5
comments
print report bad tab
7 comments total. Showing first comments.
0 reply
kcomputer99 16 wrote on August 27 2006, 06:20 pm

add this after what you got


E---------------------------------------------------------------------------|
B---------------------------------------------------------------------------|
G--7-s-9--9-9---9-9-s-7-7--7-7-s-9--9-9--9-s-6--6-s-5-5-5-------------------|
D--x-s-x--x-x---x-x-s-x-x--x-x-s-x--x-x--x-s-x--x-s-x-x-x-----0--1-2--------|
A--5-s-7--7-7---7-7-s-5-5--5-5-s-7--7-7--7-s-4--4-s-3-3-3---2---------------|
E---------------------------------------------------------------------------|

repeat

0 reply
hwy1strats 10 wrote on April 6 2014, 08:42 am, edited on December 25 2015, 10:54 am

Just about USELESS!
Pardon me....totally useless and wrong!!!
Give up the guitar!!

0 reply
jecooke88 10 wrote on December 30 2015, 09:34 pm

Post the tab, HWY! I would love to get this one right, too.

guest
You may want to rate the tab now too:
select rating
Please do not post tabs as comments. Select "correction" instead!