Oops, an error
Loading. Please wait.

Too Rolling Stoned Bass Tab

version 1
version 1

Whole song

Interactive

5,429 views 12 this week
no commentswrite comment
1 2 3 4 5
please rate
add to favorites
launch autoscroll
font size
0
reset
guitar tuner
Autoscroll
slow
fast
+/-
esc
set tempo
stop
Help us to improve Ultimate-Guitar.com Take our survey!
×
Author
Title: Too Rolling Stoned
Artist: Robin Trower (James Dewar on bass/vocals)
Album: Bridge of Sighs
Author: Randall Scott Stephens

Intro
G|---------------------------------------|---------------------------------------|
D|*------------------------------1---1---|--------------------------------------*|
A|*1--2--3---1--2--3---1--2--3-----------|-1--2--3---1--2--3---1--2--3---1------*|
E|---------------------------------------|---------------------------------------|
  ^7x
G|---------------------------------------|---------------------------------------|
D|-------------------------------1---1---|---------------------------------------|
A|-1--2--3---1--2--3---1--2--3-----------|-1--2--3---1--2--3---------------------|
E|---------------------------------------|---------------------------------------|

Verse
G|---------------------------|------------------------------|
D|*-------------------------*|----------1---3---4---5-------|
A|*3--1-3----------------1--*|-3--2-3-----------------------|
E|-----------1---2---3-------|------------------------------|
  ^3x
G|---------------------------|---------------------------|
D|---------------------------|---------------------------|
A|-3--2-3----------------1---|-3--2-3----------------1---|
E|-----------0---2---3-------|-----------1---2---3-------|

G|---------------------------|------------------------------|
D|---------------------------|----------2---3---4---5-------|
A|-3--2-3----------------1---|-3--2-3-----------------------|
E|-----------0---2---3-------|------------------------------|

Chorus
G|-------------|--------|-------------|--------|-------------|--------|
D|-1-----------|-3------|-1-----------|--------|-1-----------|-3------|
A|-------1-----|--------|-------1-----|-3------|-------1-----|--------|
E|-------------|--------|-------------|--------|-------------|--------|

G|---------------------------------------|---------------------------------------|
D|-------------------------------1---1---|---------------------------------------|
A|-1--2--3---1--2--3---1--2--3-----------|-1--2--3---1--2--3---1--2--3---1-------|
E|---------------------------------------|---------------------------------------|

G|---------------------------------------|---------------------------------------|
D|-------------------------------1---1---|---------------------------------------|
A|-1--2--3---1--2--3---1--2--3-----------|-1--2--3---1--2--3---------------------|
E|---------------------------------------|---------------------------------------|

Verse
G|---------------------------|------------------------------|
D|*--------------------------|----------1---3---1-----------|
A|*3--2-3----------------1---|-3--2-3---------------3-------|
E|-----------1---2---3-------|------------------------------|

G|---------------------------|------------------------------|
D|---------------------------|----------1---3---4---5------*|
A|-3--2-3----------------1---|-3--2-3----------------------*|
E|-----------1---2---3-------|------------------------------|
  ^2x
Chorus
G|-------------|--------|-------------|--------|-------------|--------|
D|-1-----------|-3------|-1-----------|--------|-1-----------|-3------|
A|-------1-----|--------|-------1-----|-3------|-------1-----|--------|
E|-------------|--------|-------------|--------|-------------|--------|

G|---------------------------------------|---------------------------------------|
D|*------------------------------1---1---|--------------------------------------*|
A|*1--2--3---1--2--3---1--2--3-----------|-1--2--3---1--2--3---1--2--3---1------*|
E|---------------------------------------|---------------------------------------|
  ^5x
G|---------------------------------------|---------------------------------------|
D|-------------------------------1---1---|---------------------------------------|
A|-1--2--3---1--2--3---1--2--3-----------|-1--2--3---1--2--3---------------------|
E|---------------------------------------|---------------------------------------|

Verse
G|--------------------------------|--------------------------------|
D|--------------------------------|----------1--1--3---1-----------|
A|-3--2-3---------------------1---|-3--2-3-----------------3-------|
E|----------0--0--1---2---3-------|--------------------------------|

G|---------------------------|--------------------------------|
D|---------------------------|----------1--1--3---1---4---1---|
A|-3--2-3----------------1---|-3--2-3-------------------------|
E|-----------1---2---3-------|--------------------------------|

G|------------------------------|--------------------------------|
D|------------------------------|----------1--1--3---1-----------|
A|-3--2-3-------------------1---|-3--2-3-----------------3-------|
E|----------0---1---2---3-------|--------------------------------|

G|---------------------------|--------------------------------|
D|---------------------------|----------1--1--3---1---4-------|
A|-3--2-3----------------1---|-3--2-3-------------------------|
E|-----------1---2---3-------|--------------------------------|

Chorus
G|-------------|--------|-------------|--------|-------------|--------|
D|-1-----------|-3------|-1-----------|--------|-1-----------|-3------|
A|-------1-----|--------|-------1-----|-3------|-------1-----|--------|
E|-------------|--------|-------------|--------|-------------|--------|

G|---------------------------------------|---------------------------------------|
D|-------------------------------1---1---|---------------------------------------|
A|-1--2--3---1--2--3---1--2--3-----------|-1--2--3---1--2--3---1--2--3---1-------|
E|---------------------------------------|---------------------------------------|

G|---------------------------------------|---------------------------------------|
D|-------------------------------1---1---|---------------------------------------|
A|-1--2--3---1--2--3---1--2--3-----------|-1--2--3---1--2--3-----------------1---|
E|---------------------------------------|---------------------------2---3-------|

Verse
G|---------------------------|--------------------------------|
D|---------------------------|----------1--1--3---1-----------|
A|-3--2-3----------------1---|-3--2-3-----------------3-------|
E|-----------1---2---3-------|--------------------------------|

G|---------------------------|------------------------------|
D|---------------------------|----------1---3---4---5-------|
A|-3--2-3----------------1---|-3--2-3-----------------------|
E|-----------1---2---3-------|------------------------------|

G|------------------------------|------------------------------|--------|
D|------------------------------|------------------------------|--------|
A|-3--2-3-------------------1---|-3--2-3-------------------1---|-3------|
E|----------0---1---2---3-------|----------1---1---2---3-------|--------|
now rest a few measures

Guitar Solo/Noodling
G|---------------------------------|
D|*--------------------------------|
A|*3-------3---3-------3---3-------|
E|---------------------------------|

G|---------------------------------|
D|---------------------------------|
A|-3---3-------3---3-------3---3---|
E|---------------------------------|

G|---------------------------------|
D|--------------------------------*|
A|-----3---3-------3---3-------3--*|
E|---------------------------------|
...repeat that for 4 and a half minutes 
(if the first part lasted you 3 minutes)
Suggest correction
What's this?
You can suggest a correction to this tab. Community and Mods will review your correction and vote to approve or reject it.
comments
We did not receive enough feedback on this tab! Please rate:
print report bad tab
1 2 3 4 5
guest
You may want to rate the tab now too:
select rating
Please do not post tabs as comments. Select "correction" instead!