Oops, an error
Loading. Please wait.

The Sex Has Made Me Stupid bass

908 views 1 this week
1 commentread comment
1 2 3 4 5
2 more votes to show rating
add to favorites
×
Save as Personal and add changes to this tab that will be seen only by you. Learn more ›
×
You can save this tab as Personal to edit and correct it or add notes. All changes will be seen only by you. Learn more »
launch autoscroll
font size
0
reset
guitar tuner
edit
Autoscroll
slow
fast
+/-
esc
set tempo
stop
Author
Difficulty
the bass is quite subtle

STANDARD TUNING

Verse

|------------------------------------------|
|------------------------------------------|
|-0-0-00-0--0-0-00-0--3-3-33-3-3-3-33-3----|
|------------------------------------------|


Chorus

|---------------------------------------------------------------------------|
|---------------------------------------------------------------------------|
|-----3-3-----3-3-----3-3------3-3-----7-7-----7-7------7-7-----7-7---------|
|-1-1-----1-1-----1-1-----1-1------5-5-----5-5------5-5-----5-5-------------|

1:45 onwards

|----------------------------------------------------|
|----------------------------------------------------|
|-----3----------3-----------7----------7------------|
|-1-1---1-1--1-1---1-1--5-5---5-5--5-5---5-5---------|

            
            
Suggest correction
Creating personal tab
Creating personal tab
You can edit any tab online and save it as your Personal.

You can edit, replace or remove any tab part or add personal notes – all changes will be seen only by you.

Personal tabs can be accessed anytime from any device, even offline.
Learn more »
Give kudos to tab author, rate the tab!
1 2 3 4 5
comments
print report bad tab
1 comment total.
0 reply
purplehaze30 10 Jan 04, 2008 11:48 PM

Do you know the Guitar part? Does anyone know the guitar part? Can't find it anywhere!! lol.

guest
You may want to rate the tab now too:
select rating
Wanna post a correction for this tab? Suggest correction