Oops, an error
Loading. Please wait.

Fue Tu Gran Amor tab

version 2
version 2

Whole song

28 views 1 this week
no commentswrite comment
1 2 3 4 5
3 more votes to show rating
add to favorites
×
Save as Personal and add changes to this tab that will be seen only by you. Learn more ›
×
You can save this tab as Personal to edit and correct it or add notes. All changes will be seen only by you. Learn more »
launch autoscroll
font size
0
reset
how to read this tab
guitar tuner
edit
Autoscroll
slow
fast
+/-
esc
set tempo
stop
Intro= //G-A-Bm// G-A

/Coro/

             G       A    Bm
Fue tu gran amor que me compró
       G        A    Bm
y me redimió de mi dolor;
          G       A      Bm
Nada es igual si Tú no estás
             G   A   Bm
día a día puedo yo cantar.


Verso
               D                  D2
Necesito tu aliento, un soplo de vida
                G
que me pueda llenar,
          Gm          D                A
Quiero levantar mis manos y darte el honor.
  D                      D2               G
Como imaginar que tanto amor me podria llenar
     Gm                    D              A
solo sé que la vida no es vida, si Tú no estás


/Coro/

             G       A    Bm
Fue tu gran amor que me compró
       G        A    Bm
y me redimió de mi dolor;
          G       A      Bm
Nada es igual si Tú no estás
            G   A   Bm
día a día puedo yo cantar.

/Verso/


///Coro///

|--------------|-----------------|---------------------|
|--------------|-----------------|---12-13-12-10-8-8/12-|
|-----5-7-7/9--|7/9--9-9-7-7-5-5-|-12------------------|
|-5/7----------|-----------------|---------------------|
|--------------|-----------------|---------------------|
|--------------|-----------------|---------------------|


|-------------------------------|-12-12-12-12-10-8-7-8-10-5/7-5/2--2/3----------------|
|-8/10-8-6----8/10--8-6-8-8/10--|--------------------------------------3/5-3----------|
|----------9--------------------|---------------------------------------------5-3-3/5-|
|-------------------------------|-----------------------------------------------------|
|-------------------------------|-----------------------------------------------------|
|-------------------------------|-----------------------------------------------------|

|---------------|
|---------------|
|-8/7-5----5h7--|
|-------7-------|
|---------------|
|---------------|

/=Slide
h=hammer

Después del solo sube una nota y media (A#).

(Final)


Bueno espero que les guste la canción, y que me comprendan por los
orrores que hay, pero es la primera que entro una canción.
Dios les Bendiga. El Amigo.

            
            
Suggest correction
Creating personal tab
Creating personal tab
You can edit any tab online and save it as your Personal.

You can edit, replace or remove any tab part or add personal notes – all changes will be seen only by you.

Personal tabs can be accessed anytime from any device, even offline.
Learn more »
Give kudos to tab author, rate the tab!
1 2 3 4 5
comments
print report bad tab
guest
Wanna post a correction for this tab? Suggest correction