Oops, an error
Loading. Please wait.

Kissing Rain Bass Tab

520 views 1 this week
no commentswrite comment
1 2 3 4 5
please rate
add to favorites
launch autoscroll
font size
0
reset
guitar tuner
Autoscroll
slow
fast
+/-
esc
set tempo
stop
Help us to improve Ultimate-Guitar.com Take our survey!
×
Author
Song: Kissing Rain
Artist: Roch Voisine
Tabbed by: Dolores Morrison
E-mail: snakesamedi@gmail.com

Tuning: G, D, A, E, B (Yeah, 5 string!)
---------------------------------------

Intro + Verse 1:
|------------------|
|------------------|
|-Don't play here...-|
|------------------|
|------------------|

Verse 2:
|-------|-------|-------|-------|-----------|-------|---------|-------|
|-------|-------|-------|-------|-----------|-------|---------|-------|
|-------|-------|-------|-------|-----------|-4-4-4-|---------|-------|
|-4-4-4-|-4-4-4-|-------|-------|---1-2-2-2-|-------|-6-4-4-4-|-4-4-4-|
|-------|-------|-2-2-2-|-2-2-2-|-4---------|-------|---------|-------|

Pre-chorus:
|-------------|-----------1-8-|-----------|
|-------------|---------1-----|-----------|
|-------1-3---|-------1-------|-6---6-6-6-|
|-2-1-1-----4-|-2-1-1---------|-----------|
|-------------|---------------|-----------|

Chorus:
|-----------|---------|---------|-------|---------|-----------|-------|-----------|-------|
|-----------|---------|---------|-------|-1-3-3-3-|-3-\-------|-------|-----------|-1-3-1-|
|-6-\-------|---------|---4-4-4-|-4-4-4-|---------|-----4-4-4-|-------|-----------|-------|
|-----4-4-4-|---4-4-4-|-4-------|-------|---------|-----------|-4-4-4-|-----4-4-4-|-------|
|-----------|-4-------|---------|-------|---------|-----------|-------|-4-6-------|-------|

Verse 3:
|-------|-------|-------|-------|---------|-------|-------|-------|
|-------|-------|-------|-------|---------|-------|-------|-------|
|-------|-------|-------|-------|---------|-4-4-4-|-------|-------|
|-4-4-4-|-4-4-4-|-------|-------|-1-2-2-2-|-------|-4-4-4-|-4-4-4-|
|-------|-------|-2-2-2-|-2-2-2-|---------|-------|-------|-------|

Pre-chorus:
|-------------|-----------1-8-|---------3-/-8-\-|
|-------------|---------1-----|-------6---------|
|-------1-3---|-------1-------|-6---6-----------|
|-1-3-1-----4-|-2-1-1---------|-----------------|
|-------------|---------------|-----------------|

Chorus:
|-------|---------|---------|---------|-----------|-----------|---------|-----------|
|-------|---------|---------|---------|---1-3-3-3-|-3-\-------|---------|-----------|
|-------|---------|-3-4-4-4-|---4-4-4-|-4---------|-----4-4-4-|---------|-----------|
|-4-4-4-|---4-4-4-|---------|-4-------|-----------|-----------|-6-4-4-4-|-----4-4-4-|
|-------|-4-------|---------|---------|-----------|-----------|---------|-4-6-------|

|-----------|---------|---------|---------|-----------|-----------|---------|-----------|
|-----------|---------|---------|---------|---1-3-3-3-|-3-\-------|---------|-----------|
|-3-6-------|---------|-3-4-4-4-|---4-4-4-|-4---------|-----4-4-4-|---------|-----------|
|-----4-4-4-|---4-4-4-|---------|-4-------|-----------|-----------|-6-4-4-4-|-----4-4-4-|
|-----------|-4-------|---------|---------|-----------|-----------|---------|-4-6-------|

Bridge:
|-------|-------|-------|-------|---------|-------|-----8---6-8-|---|
|-------|-1-1-1-|-------|-------|---------|-------|-------8-----|---|
|-4-4-4-|-------|-------|-4-4-4-|-1-3-3-3-|-1-1-1-|-6-6---------|---|
|-------|-------|-4-4-4-|-------|---------|-------|-------------|-4-|
|-------|-------|-------|-------|---------|-------|-------------|---|

Solo:
|--------|
|--------|
|--------|
|-13-\-4-|
|--------|

|-------|-----------|-------|-----------|-----------|-------------|---------------|-----------|
|-------|-----------|-------|-----------|-1-2-3-3-3-|-3-3-\-------|---------------|-----------|
|-------|-----------|-4-4-4-|-----4-4-4-|-----------|-------4-4-4-|-4-4-6-6-------|-----------|
|-4-4-4-|-----4-4-4-|-------|-4-6-------|-----------|-------------|---------4-4-4-|-----4-4-4-|
|-------|-4-6-------|-------|-----------|-----------|-------------|---------------|-4-6-------|

Chorus:
|-------|-------|---------|---------|---------|-----------|-----------|-------|---------------------|
|-1-3-1-|-------|---------|---------|---------|---1-3-3-3-|-3-\-------|-------|-------8-6-6---------|
|-------|-------|---------|-3-4-4-4-|---4-4-4-|-4---------|-----4-4-4-|-------|-----6---------8-6-6-|
|-------|-4-4-4-|---4-4-4-|---------|-4-------|-----------|-----------|-4-4-4-|---4---------8-------|
|-------|-------|-4-------|---------|---------|-----------|-----------|-------|-4-------------------|

|-----------|---------|---------|---------|---------|---------|-----------|
|-----------|---------|---------|---------|-1-3-3-3-|-1-------|-----------|
|-3-1-------|---------|-3-4-4-4-|---4-4-4-|---------|---4-4-4-|-1-3-------|
|-----4-4-4-|---4-4-4-|---------|-4-------|---------|---------|-----4-4-4-|
|-----------|-4-------|---------|---------|---------|---------|-----------|

|---6-8-8-5-3-3-1-------------------|
|-6---------------3-3-1-3-3-1-------|
|-----------------------------3-3-1-|
|-----------------------------------|
|-----------------------------------|   

|-------|---------|---------|---------|---------|-----------|-------|
|-------|---------|---------|---------|-1-3-3-3-|-3-\-------|-------|
|-------|---------|-3-4-4-4-|---4-4-4-|---------|-----4-4-4-|-------|
|-4-4-4-|---4-4-4-|---------|-4-------|---------|-----------|-4-4-4-|
|-------|-4-------|---------|---------|---------|-----------|-------|

|-------------------------------|
|-----10-10-8-6-8-/-13-10-8-6---|
|-6-8-------------------------8-|
|-------------------------------|
|-------------------------------|

|-------|---------|---------|---------|---------|-----------|-----------|
|-------|---------|---------|---------|-1-3-3-3-|-3-1-------|-----------|
|-------|---------|-3-4-4-4-|---4-4-4-|---------|-----4-4-4-|-4-1-------|
|-4-4-4-|---4-4-4-|---------|-4-------|---------|-----------|-----4-4-4-|
|-------|-4-------|---------|---------|---------|-----------|-----------|

|-1-3-3-1-------------|-------|
|---------3-3-1-------|-------|
|---------------3-1---|-------|
|-------------------4-|-4-4-4-|
|---------------------|-------|  ...Etc. Fade out...
Suggest correction
Give kudos to tab author, rate the tab!
1 2 3 4 5
comments
print report bad tab
guest
You may want to rate the tab now too:
select rating
Wanna post a correction for this tab? Suggest correction