Oops, an error
Loading. Please wait.

Whatever It Takes Bass Tab

283 views 1 this week
no commentswrite comment
1 2 3 4 5
please rate
add to favorites
launch autoscroll
font size
0
reset
guitar tuner
Autoscroll
slow
fast
+/-
esc
set tempo
stop
Help us to improve Ultimate-Guitar.com Take our survey!
×
Artist:Roch Voisine
Song:Whatever it takes
Tabbed by: Timothy Morrison
E-mail: bass_bassist@hotmail.com

Tuning: G, D, A, E, B
(That's right, you need a 5-string bass)
-------------------------------*******------------------------------

Intro + verse 1 + pre-chorus:

G|-------------------|-----------------|
D|-------------------|12-10-9----------|
A|-Wait 40 measures:-|--------12-10-10-|
E|-------------------|-----------------|
B|-------------------|-----------------|

|-----------------------------9-\-|
|-12-10-9-------------9-10-12-----|
|---------12-10-10-12-------------|
|---------------------------------|
|---------------------------------|

|-----------------|
|-----------------|
|-----------------|
|-----------------|
|-3-3-3-3-3-3-3-3-|

|-----------------|-----------------|---------------------------------|
|-----------------|-----------------|---------------------------------|
|-----------------|-----------------|---------------------------------|
|-----------------|-----------------|---------------------------------|
|-5-5-5-5-5-5-5-5-|-1-1-1-1-1-1-1-1-|-3-3-3-3-3-3-3-3-3-3-3-3-3-3-3-3-| 2X

|-----------|-----------|-----------|-----------|---|
|-----------|-----------|-----------|-----------|---|
|-----------|-----------|-----------|-----------|---|
|-3—--3-3-3-|-----------|-----------|-5---5-5-5-|---|
|-----------|-5---5-5-5-|-1---1-1-1-|-----------|-1-|


Verse 2 + pre-chorus:

|------------------|-----|
|------------------|-----|
|-Wait 8 measures:-|-7-5-|
|------------------|-----|
|------------------|-----|

|---------|-----|---------|-----|---------|-----|---------|-----|
|---------|-----|---------|-----|---------|-----|---------|-----|
|-------2-|---2-|-------2-|-2---|---------|-----|---------|-----|
|-3-5-3---|-5---|-3-3-5---|---3-|---------|-----|---------|-----|
|---------|-----|---------|-----|-1-3-1-5-|-3-5-|-1-1-3-5-|-5-1-| 3X

|-----------------|-------------------------|
|12-10-9----------|-------------------------|
|--------12-10-10-|-10-10-10-10-10-10-10-10-|
|-----------------|-------------------------|
|-----------------|-------------------------|

|-----------------------------------9-\-|
|-12-10-9-------------------9-10-12-----|
|---------12-12-10-10-10-12-------------|
|---------------------------------------|
|---------------------------------------|

|-----------------|
|-----------------|
|-----------------|
|-----------------|
|-3---3-3-3-3-3-3-|


Chorus:

|-----------------|-----------------|---------------------------------|
|-----------------|-----------------|---------------------------------|
|-----------------|-----------------|---------------------2-2-3-2-----|
|-----------------|-----------------|---------2-2-3-3-5-5---------5-3-|
|-5-5-5-5-5-5-5-5-|-1-1-1-1-1-1-1-1-|-3-3-5-5-------------------------| 2X

|-----------|-----------|-----------|-----------|-----------|-----------|
|-----------|-----------|-----------|-----------|-----------|-----------|
|-----------|-----------|-----------|-----------|-----------|-----------|
|-3—--3-3-3-|-----------|-----------|-5---5-5-5-|-----------|-----------|
|-----------|-5---5-5-5-|-1---1-1-1-|-----------|-1---1-1-1-|-1---1-1-1-|


Solo:

|--------------|--------------|---------------|---------------|
|--------------|--------------|---------------|---------------|
|-------2----2-|-------2----2-|---------------|---------------|
|-3-3-5----5---|-3-3-5----5---|---------------|---------------|
|--------------|--------------|-1-1-3-5---3-5-|-1-1-3-5---3-5-|


Pre-chorus:

|-----------------|-------------------------|
|12-10-9----------|-------------------------|
|--------12-10-10-|-10-10-10-10-10-10-10-10-|
|-----------------|-------------------------|
|-----------------|-------------------------|

|----------------------------------9-\-|
|12-10-9-------------------9-10-12-----|
|--------12-12-10-10-10-12-------------|
|--------------------------------------|
|--------------------------------------|

|-----------------|-----------------|
|-----------------|-----------------|
|-----------------|-----------------|
|-----------------|-----------------|
|-3-3-3-3-3-3-3-3-|-3---3---3---3---|


Bridge:

|-------------------|-------------------------------|
|-------------------|-------------------------------|
|-Wait 13 measures:-|---------------2-2-3-3-3-2-----|
|-------------------|-----2-3-3-3-5-------------5-3-|
|-------------------|-3-5---------------------------|


Some kind of chorus. (I don't know the exact word, off-hand!)

|---------------------------------|---------------------------------|
|-2-5-2---------------------------|---------------------------------|
|-------5---------2-2-2-2-2-2-----|---------------------2-2-3-2-----|
|---------3-3-3-5-------------3---|---------2-2-3-3-5-5---------5-3-|
|-------------------------------5-|-3-3-5-5-------------------------|

|-----------------|-----------------|---------------------------------|
|-----------------|-----------------|---------------------------------|
|-----------------|-----------------|---------------------2-2-3-2-----|
|-----------------|-----------------|---------2-2-3-3-5-5---------5-3-|
|-5-5-5-5-5-5-5-5-|-1-1-1-1-1-1-1-1-|-3-3-5-5-------------------------|

|-----------------|-----------------|---------------------------------|
|-----------------|-----------------|---------------------------------|
|-7-7-7-7-7-7-7-5-|-3-3-3-3-3-3-3---|---------------------2-2-3-2-----|
|-----------------|---------------3-|---------2-2-3-3-5-5---------5-3-|
|-----------------|-----------------|-3-3-5-5-------------------------|

|-----------------|-----------------|---------------------------------|
|-----------------|-----------------|---------------------------------|
|-----------------|-----------------|---------------------2-2-3-2-----|
|-----------------|-----------------|---------2-2-3-3-5-5---------5-3-|
|-5-5-5-5-5-5-5-5-|-1-1-1-1-1-1-1-1-|-3-3-5-5-------------------------|

|-----------------|-----------------|---------------------------------|
|-----------------|-----------------|---------------------------------|
|-----------------|-----------------|---------------------2-2-3-2-----|
|-----------------|-----------------|---------2-2-3-3-5-5---------5-3-|
|-5-5-5-5-5-5-5-5-|-1-1-1-1-1-1-1-1-|-3-3-5-5-------------------------|

|-----------------|-----------------|---------------2-2-4-4-5-14-14-5-4-|
|-----------------|-----------------|-----2-4-4-5-5---------------------|
|-----------------|-----------------|-5-5-------------------------------|
|-----------------|-----------------|-----------------------------------|
|-5-5-5-5-5-5-5-5-|-1-1-1-1-1-1-1-1-|-----------------------------------|

|-----------------|-----------------|---------------2-2-2-4-5-5-4-5-4-|
|-----------------|-----------------|-----2-4-4-5-5-------------------|
|-7-7-7-7-7-7-7-5-|-3-3-3-3-3-3-3---|-5-5-----------------------------|
|-----------------|---------------3-|---------------------------------|
|-----------------|-----------------|---------------------------------|

|---------------------------------|---------------2-2-2-4-5-5-4-5-4-|
|-2-5-2---------------------------|-----2-4-4-5-5-------------------|
|-------5---------2-2-2-2-2-2-----|-5-5-----------------------------|
|---------3-3-3-5-------------3---|---------------------------------|
|-------------------------------5-|---------------------------------|...FADE OUT...
Suggest correction
Give kudos to tab author, rate the tab!
1 2 3 4 5
comments
print report bad tab
guest
You may want to rate the tab now too:
select rating
Please do not post tabs as comments. Select "correction" instead!