Oops, an error
Loading. Please wait.

Locked Away tab

version 1
version 1

Whole song

Interactive

1,981 views 3 this week
no commentswrite comment
1 2 3 4 5
2 more votes to show rating
add to favorites
×
Save as Personal and add changes to this tab that will be seen only by you. Learn more ›
×
You can save this tab as Personal to edit and correct it or add notes. All changes will be seen only by you. Learn more »
launch autoscroll
font size
0
reset
how to read this tab
guitar tuner
edit
Autoscroll
slow
fast
+/-
esc
set tempo
stop
----------------------------------------------------------------------------------------------
                             lOCKED AWAY-ROCK CITY FT. ADAM LEVINE
----------------------------------------------------------------------------------------------
Tabbed by:Jim Bratsos
E-mail:jimbratsosvine@gmail.com
Capo on 1st Fret
A tab of the FULL song. If any problems occur, email me or comment below. 
Tell me if you like it! 

Tuning: Standard ( EADGBE )

e|--------0--0--0--1--3------------------------------------------------------|
B|---1--------------------1----1-----1---3---5-------------------------------|
G|---0-----------------------2-----2-------------2---2--0--2--3---4----------|
D|---------------------------------------------------------------------------|
A|---3-----------------------------------------------------------------------|
E|---------------------------------------------------------------------------|

e|--------0--0------0---------0--0--0--1--3----------------------------------------|
B|---1----------3------3--1-----------------1----1----1---3---5--------------------|
G|---0----------0-------------------------------2----2-----------2--2--0--2--3--4--|
D|---------------------------------------------------------------------------------|
A|---3-----------------------------------------------------------------------------|
E|--------------3------------------------------------------------------------------|

e|-------0--0------0--------------------------------------------------------------------|
B|---1----------3-----3--1-------------------555-33-------------------------------------|
G|---0----------0-------------------------------------------555----------5------------5-|
D|----------------------------------------------------------------2--3-----3--33333-2--2|
A|---3------------------------33--4---4-------------------------------------------------|
E|--------------3-----------------------------------------------------------------------|

e|-----------------------------------------------------------------------------------------|
B|----------------------555-33-------------------------------------------------------------|
G|--1-2-4-2-4-2-5-4-2-------------555-----------5-----------------5-----1-2-4-2-4-2-5-4-2-5|
D|--------------------------------------2--3-------3---33333---2-----2-------------------5-|
A|-----------------------------------------------------------------------------------------|
E|-----------------------------------------------------------------------------------------|

e|------------------------------------------------------------------------------|
B|------------------------------------------------------------------------------|
G|------------------------------------------------------------------------------|
D|-------33333--22-------------33--5-3-2-2--------------3333---22--------3332-02|
A|---333-------------------00----------------------00---------------000------3--|
E|-----------------3--555------------------3--555-------------------------------|

e|------------------------------------------------------------------------------|
B|------------------------------------------------------------------------------|
G|------------------------------------------------------------------------------|
D|------33333-22------------33--5-3-2-2----------3333--22-------332-02----------|
A|--000------------------00-------------------00-----------333-----3------------|
E|---------------3--555-----------------3-555-----------------------------------|

e|--------0--0--0--1--3------------------------------------------------------|
B|---1--------------------1----1-----1---3---5-------------------------------|
G|---0-----------------------2-----2-------------2---2--0--2--3---4----------|
D|---------------------------------------------------------------------------|
A|---3-----------------------------------------------------------------------|
E|---------------------------------------------------------------------------|

e|--------0--0------0---------0--0--0--1--3----------------------------------------|
B|---1----------3------3--1-----------------1----1----1---3---5--------------------|
G|---0----------0-------------------------------2----2-----------2--2--0--2--3--4--|
D|---------------------------------------------------------------------------------|
A|---3-----------------------------------------------------------------------------|
E|--------------3------------------------------------------------------------------|

e|-------0--0------0-------------------------------------------------------------------------------|
B|---1----------3-----3--1-------------555--33---111-----------------------------------------------|
G|---0----------0-------------------------------------------4-------------4---0-1-3-1-3-1-4-3--1---|
D|-------------------------3333-3-2-3-----------------1-2------2--22222-1--1-----------------------|
A|---3---------------------------------------------------------------------------------------------|
E|--------------3----------------------------------------------------------------------------------|

e|--------------------------------------------------------------|
B|--555--33---111-----------------------------------------------|
G|-----------------------4-------------4---3-1-3-1-4-3----4-----|
D|------------------1-2------2--22222-1--1-------------2--------|
A|--------------------------------------------------------------|
E|--------------------------------------------------------------|

e|------------------------------------------------------------------------------|
B|------------------------------------------------------------------------------|
G|------------------------------------------------------------------------------|
D|-------33333--22-------------33--5-3-2-2--------------3333---22--------3332-02|
A|---333-------------------00----------------------00---------------000------3--|
E|-----------------3--555------------------3--555-------------------------------|

e|------------------------------------------------------------------------------|
B|------------------------------------------------------------------------------|
G|------------------------------------------------------------------------------|
D|------33333-22------------33--5-3-2-2----------3333--22-------332-02----------|
A|--000------------------00-------------------00-----------333-----3------------|
E|---------------3--555-----------------3-555-----------------------------------|

e|--------0--0--0--1--3------------------------------------------------------|
B|---1--------------------1----1-----1---3---5-------------------------------|
G|---0-----------------------2-----2-------------2---2--0--2--3---4----------|
D|---------------------------------------------------------------------------|
A|---3-----------------------------------------------------------------------|
E|---------------------------------------------------------------------------|

e|--------0--0------0---------0--0--0--1--3----------------------------------------|
B|---1----------3------3--1-----------------1----1----1---3---5--------------------|
G|---0----------0-------------------------------2----2-----------2--2--0--2--3--4--|
D|---------------------------------------------------------------------------------|
A|---3-----------------------------------------------------------------------------|
E|--------------3------------------------------------------------------------------|

e|-------0--0------0--------------------------------------------------------------------|
B|---1----------3-----3--1---1111----1-5--1111-----1-5--1111-----1-5----555-3-6-5-1-3-1-|
G|---0----------0----------------2-0-----------2-0-----------2-0-----22-----------------|
D|--------------------------------------------------------------------------------------|
A|---3----------------------------------------------------------------------------------|
E|--------------3-----------------------------------------------------------------------|

e|--------------------------------------------------------------------------------------|
B|-1111----1-5--5555-3-5-3-1---1111----1-5-----555-3-6-5-1-3-5Q-3-1---------------------|
G|-----2-0-------------------2-----2-0-----22----------------------2-0------------------|
D|--------------------------------------------------------------------------------------|
A|--------------------------------------------------------------------------------------|
E|--------------------------------------------------------------------------------------|

e|--------0--0--0--1--3------------------------------------------------------|
B|---1--------------------1----1-----1---3---5-------------------------------|
G|---0-----------------------2-----2-------------2---2--0--2--3---4----------|
D|---------------------------------------------------------------------------|
A|---3-----------------------------------------------------------------------|
E|---------------------------------------------------------------------------|

e|--------0--0------0---------0--0--0--1--3----------------------------------------|
B|---1----------3------3--1-----------------1----1----1---3---5--------------------|
G|---0----------0-------------------------------2----2-----------2--2--0--2--3--4--|
D|---------------------------------------------------------------------------------|
A|---3-----------------------------------------------------------------------------|
E|--------------3------------------------------------------------------------------|

e|--------0--0------0---------0--0--0--1--3----------------------------------------|
B|---1----------3------3--1-----------------1----1-----10--8--6-5------------------|
G|---0----------0-------------------------------2----2------------2--0--2--3---4---|
D|---------------------------------------------------------------------------------|
A|---3-----------------------------------------------------------------------------|
E|--------------3------------------------------------------------------------------|

e|--------0--0------0-------------5---3--1-------5--3--1-------------5-3-1--------0---0------------------|
B|---1----------3------3--1-----------------------------------------------------1-------3---3-1----------|
G|---0----------0------------0--2-----------0--2----------0-2----0-2------------0-------0----------------|
D|-------------------------------------------------------------------------------------------------------|
A|---3--------------------------------------------------------------------------3------------------------|
E|--------------3-----------------------------------------------------------------------3----------------|







            
            
Suggest correction
Creating personal tab
Creating personal tab
You can edit any tab online and save it as your Personal.

You can edit, replace or remove any tab part or add personal notes – all changes will be seen only by you.

Personal tabs can be accessed anytime from any device, even offline.
Learn more »
Give kudos to tab author, rate the tab!
1 2 3 4 5
comments
print report bad tab
guest
You may want to rate the tab now too:
select rating
Wanna post a correction for this tab? Suggest correction