Oops, an error
Loading. Please wait.

Black Tab

version 2
version 2

Whole song

44 views 1 this week
no commentswrite comment
1 2 3 4 5
please rate
add to favorites
launch autoscroll
font size
0
reset
how to read this tab
guitar tuner
Autoscroll
slow
fast
+/-
esc
set tempo
stop
Help us to improve Ultimate-Guitar.com Take our survey!
×
Contributor
Difficulty
Esparko 1,590
intermediate
-------------------------------------------------------------------------------
                   Black - Rock N' Roll Soldiers
                     So Many Musicians to Kill
-------------------------------------------------------------------------------

Tabbed by: Panji Brotoisworo
Email: panji66(AT)hotmail.com (Replace the 'at')

E-mail me for comments or PM me on my UG Profile - "Esparko"

Tuning: EADGBe

Legend

| #x Play it for a certain amount of times
| /  slide up
| \  slide down
| ^  Bend the string
| h  hammer-on
| p  pull-off
| ~  vibrato
| ph Pinch Harmonic
| ah Artifical Harmonic
| x  Mute note
================

It's about time a good tab is put up, I think this is one of their better songs.
This song is found on the European edition of "So Many Musicians to Kill".


====================
Intro/Verse - (0:00)
====================

In the first bit here, sustain the notes in the triad, don't play them separately.

e|------6--------6---|--------6-----x-x-x--6------------------|
B|----7--------7---7-|------7---7---x-x-x--6------------------|
G|--8--------8-------|----8---------x-x-x--6------------------|
D|-------------------|----------------------------------------|
A|-------------------|----------------------------------------|
E|-------------------|----------------------------------------|




===============
Chorus - (0:56)
===============

Same thing as above, don't play the notes in these triads
separately.

e|------6-------6-------6------|
B|----7---7---7---7---7---7----|
G|--8-------8-------8-------8--|
D|-----------------------------|
A|-----------------------------|
E|-----------------------------|

e|-------------------------------------------------|
B|------------------4-------4-------6-------6------|
G|--8--6----------4---4---4---4---6---6---6---6----|
D|--------8--6--4-------4-------6-------6----------|
A|-------------------------------------------------|
E|-------------------------------------------------|


===============
Bridge - (1:24)
===============

e|--------------------------------11--------------------------------11-|
B|-------11-10------11-10---11-14-----------------------------11-14----|
G|------------------------------------------13-11------ 13-11----------|
D|---------------------------------------------------------------------|
A|--9-9---------9-9----------------------------------------------------|
E|-------------------------------------11-11------11-11----------------|

e|--------------------------------11--------------------------------------|
B|-------11-10------11-10---11-14-----------------------------------------|
G|------------------------------------------13-11-----13-11-10------------|
D|------------------------------------------------------------------------|
A|--9-9---------9-9-------------------------------------------------------|
E|-------------------------------------11-11------9-9---------------------|

==================
Breakdown - (1:52)
==================

These are the notes used in the breakdown.
He strums the same note multiple times and follows a pattern.
It's pretty easy to figure out the rhythm.

e|-----------------------------------------------------------|
B|-----------------------------------------------------------|
G|-8-----11--------------------------------------------------|
D|-8--9--11-11-----------------------------------------------|
A|-6--9--9--11-----------------------------------------------|
E|----7-----9------------------------------------------------|


And that's all the tabs for all the sections of the song.
Hope you enjoy it.
comments
We did not receive enough feedback on this tab! Please rate:
print report bad tab
1 2 3 4 5
I want to post or [tab]
guest
You may want to rate the tab now too:
select rating
Please do not post tabs as comments. Select "correction" instead!