Oops, an error
Loading. Please wait.

Failures Tab

361 views 1 this week
no commentswrite comment
1 2 3 4 5
please rate
add to favorites
launch autoscroll
font size
0
reset
how to read this tab
guitar tuner
Autoscroll
slow
fast
+/-
esc
set tempo
stop
Help us to improve Ultimate-Guitar.com Take our survey!
×
Author
Difficulty
intermediate
-------------------------------------------------------------------------------
                 Failures - Rock N' Roll Soldiers
                    So Many Musicians To Kill
-------------------------------------------------------------------------------

Tabbed by: Panji Brotoisworo
Email: panji66(AT)hotmail.com (Replace the 'at')

E-mail me for comments or PM me on my UG Profile - "Esparko"

Tuning: EADGBe

Legend

| x# Play it for a certain amount of times
| /  slide up
| \  slide down
| ^  Bend the string
| h  hammer-on
| p  pull-off
| ~  vibrato
| +  harmonic
| x  Mute note
================



Verse (00:31)
"Raised to be a perfect child..."

e|-----------------------------------------------------|
B|---0-4----0-4----4----0-4---0-4---4---0-4---0-4---4--|
G|-1------1------1-------------------------------------|
D|--------------------4-----4-----4---3-----3-----3---2|
A|-----------------------------------------------------|
E|-----------------------------------------------------|

        ..................       
e|------------------------------------------|
B|-4/11-11-11-11-11-12-12-------------------|
G|------------------------------------------|
A|------------------------------------------|
D|------------------------------------------|
E|------------------------------------------|
        \________________/
   Vibrato while playing the notes!







Chorus (00:39)

e|--------------------------------------------------------|
B|--------------------------------------------------------|
G|--------4-----8-----9-----11-----13-----11-----9-----8--|
A|--6-----4-x8--8-x4--9-x2--11-x2--13-x8--11-x8--9-x8--8--|
D|--6-x8--2-----6-----7-----9------11-----9------7-----6--|
E|--4-----------------------------------------------------|

e|----------|
B|----------|
G|--6-6-4---|
D|--6-6-4-6-|
A|--4-4-2-6-|
E|--------4-|




Verse - x2
Chorus




Bridge (1:53)
"If the sound wants to make you freak out.."

e|--------------------------------|
B|--------------------------------|
G|--------------------------------| 
D|--------------------------------|  x2
A|--------------------------------|
E|-4-4-4--4-4-4--4-4-4---4-4-7^---|






Solo (2:00)

e|------11-------11---------------------------11-------11---12-12-12-|
B|-9-12-----9-12-----9-11-9-11-12-11-9---9-12-----9-12---------------|
G|-------------------------------------------------------------------| x2
D|-------------------------------------------------------------------|
A|-------------------------------------------------------------------|
E|-------------------------------------------------------------------|

Rythm Guitar in Solo

e|-------------------------------------------------------|
B|-------------------------------------------------------|
G|-------------------4-----------4-----------------------|
D|-6-----4-----3-----4-x8--6-----4-x8--3-----2-2---2-2---|
A|-6-x8--4-x8--3-x8--2-----6-x8--2-----3-x8--2-2---2-2---|
E|-4-----2-----1-----------4-----------1-----0-0---0-0---|






Outro (02:16)
"Here we go, we're the sons.."

The other guitar plays the Verse riff over this.

e|-----------------------------------------------------------------------|
B|-----------------------------------------------------------------------|
G|-------------6-----8-----9-----11-----13-----11-----9-----8---6-6-4----|
D|-6-----4-----6-x8--8-x4--9-x2--11-x2--13-x8--11-x8--9-x8--8---6-6-4-6--|
A|-6-x8--4-x8--4-----6-----7-----9------11-----9------7-----6---4-4-2-6--|
E|-4-----2------------------------------------------------------------4--|


Suggest correction
Give kudos to tab author, rate the tab!
1 2 3 4 5
comments
print report bad tab
guest
You may want to rate the tab now too:
select rating
Please do not post tabs as comments. Select "correction" instead!