Oops, an error
Loading. Please wait.

Funny Little Feeling Tab

version 1
version 1

Whole song

Interactive

8,623 views 6 this week
7 commentsread comments
1 2 3 4 5
excellent!
x 6
add to favorites
launch autoscroll
font size
0
reset
how to read this tab
guitar tuner
Autoscroll
slow
fast
+/-
esc
set tempo
stop
Help us to improve Ultimate-Guitar.com Take our survey!
×
-------------------------------------------------------------------------------
                  Funy Little Feeling - Rock n Roll Soldiers
-------------------------------------------------------------------------------
Tabbed by:
Email:

Tuning:normal

intro                                                
e|------12-------------------------12----------14/16|
B|---14----14-14/16\14-12-14----14----14-17-14------|                    
G|13-------------------------13b--------------------|
D|--------------------------------------------------|                      
A|--------------------------------------------------| 
E|--------------------------------------------------|
 play this after the intro when used over verses 2,3,and 4
e|-------14/16--------14/16--------19/21-|
B|-17-14--------17-14--------17-16-------|
G|---------------------------------------|
D|---------------------------------------|
A|---------------------------------------|
E|---------------------------------------|

verse 1
e|-----------------------------------------------------------------------|
B|-----------------------------------------------------------------------|
G|-----------------------------------------------------------------------|
D|6xxxx6xxxxxx6-4xxxx4xxxxxx4--------------------------------------------|
A|4xxxx4xxxxxx4-2xxxx2xxxxxx2-6xxxx6xxxxxx6-4xxxx4xxx4-4/6-6-------------|
E|----------------------------4xxxx4xxxxxx4-2xxxx2xxx2-2/4-4-------------|

chorus 1                        x2
e|-----------------------------------------------------------------------|
B|-----------------------------------------------------------------------|
G|-6--6-6--6-6-6-----------4-2-------------------------------------------|
D|-6--6-6--6-6-6-4--4-4--4-4-2-6--6-6--6-6-6-4-4-4-4-4-4-4-4-------------|
A|-4--4-4--4-4-4-4--4-4--4-2-0-6--6-6--6-6-6-4-4-4-4-4-4-4-4-------------|
E|---------------2--2-2--2-----4--4-4--4-4-4-2-2-2-2-2-2-2-2-------------|

verse 2(use lots of reverb)         x2
e|-----------------------------------------------------------------------|
B|-----------------------------------------------------------------------|
G|-----------------------------------------------------------------------|
D|-6-----------4------------------------------------4--------------------|
A|-4-----------2-------------6-------------4--------2--6---6-------------|
E|---------------------------4-------------2-----------6---6-------------|

verse 2 (continued)                  x2
e|-----------------------------------------------------------------------|
B|-----------------------------------------------------------------------|
G|-----------------------------------------------------------------------|
D|-6----6-------4----4---------------------------------------------------|
A|-4----4-------2----2-------6----6--------4-4-4-4-6-6-6-6---------------|
E|---------------------------4----4--------2-2-2-2-4-4-4-4---------------|

Chorus 2                                                                    
e|-----------------------------------------------------------------------|
B|-----------------------------------------------------------------------|
G|-6--6-6--6-6-6-----------4-2-------------------------------------------|
D|-6--6-6--6-6-6-4--4-4--4-4-2-6--6-6--6-6-6-4-4-4-4-4-4-4-4-------------|
A|-4--4-4--4-4-4-4--4-4--4-2-0-6--6-6--6-6-6-4-4-4-4-4-4-4-4-------------|
E|---------------2--2-2--2-----4--4-4--4-4-4-2-2-2-2-2-2-2-2-------------|

e|-----------------------------------------------------------------------|
B|-----------------------------------------------------------------------|
G|-6--6-6--6-6-6-----------4-2------------------6------------------------|
D|-6--6-6--6-6-6-4--4-4--4-4-2-6--6-6--6-6-6-4--6--6--6------------------|
A|-4--4-4--4-4-4-4--4-4--4-2-0-6--6-6--6-6-6-4--4--6--6------------------|
E|---------------2--2-2--2-----4--4-4--4-4-4-2-----4--4------------------|  

verse 3
e|-------------------------------------------------------------------------|
B|-------------------------------------------------------------------------|
G|-6--6-6--6-6-6--9--9-9--9-9-9-------------------------------6--6-6--6-6-6|
D|-6--6-6--6-6-6--9--9-9--9-9-9--9--9-9--9-9-9--7--7-7--7-7-7-6--6-6--6-6-6|
A|-4--4-4--4-4-4--7--7-7--7-7-7--9--9-9--9-9-9--7--7-7--7-7-7-4--4-4--4-4-4|
E|-------------------------------7--7-7--7-7-7--5--5-5--5-5-5--------------|
                                  x3(dont play the last 3 notes last time)
e|--------------------------------|---------------|-----------------------|
B|--------------------------------|---------------|-----------------------|
G|--9--9-9--9-9-9-----------------|---------------|-----------------------|
D|--9--9-9--9-9-9--9--9-9--9-9-9--|7-7-7-7--7-7-7-|-9-9---11\-------------|
A|--7--7-7--7-7-7--9--9-9--9-9-9--|7-7-7-7--7-7-7-|-9-9---11\-------------|
E|-----------------7--7-7--7-7-7--|5-5-5-5--5-5-5-|-7-7---9-\-------------|

interlude
e|-----------------------------------------------------------------------|
B|-----------------------------------------------------------------------|
G|-----------------------------------------------------------------------| 
e|-------------------------------feedback-----------------4-4-4-4-4-4-4-4|
B|--------------------------------------------------------4-4-4-4-4-4-4-4|
G|--------------------------------------------------------2-2-2-2-2-2-2-2|

verse 4                      x2
e|-----------------------------------------------------------|
B|-----------------------------------------------------------|
G|-6--6-6--6-6-6--9--9-9--9-9-9------------------------------|
D|-6--6-6--6-6-6--9--9-9--9-9-9--9--9-9--9-9-9--7--7-7--7-7-7|
A|-4--4-4--4-4-4--7--7-7--7-7-7--9--9-9--9-9-9--7--7-7--7-7-7|
E|-------------------------------7--7-7--7-7-7--5--5-5--5-5-5|

e|-------------------------------------------------|
B|-------------------------------------------------|
G|----------------------------------------------6--|
D|-9--9-9--9-9-9--7--7-7--7-7-7--9--9-9--9-9-9--6--|
A|-9--9-9--9-9-9--7--7-7--7-7-7--9--9-9--9-9-9--4--|
E|-7--7-7--7-7-7--5--5-5--5-5-5--7--7-7--7-7-7-----|

Order:
Intro
verse 1
chorus 1
verse 2/intro
chorus 2
verse 3/intro
interlude
chorus 1
verse 4/intro

Ok, that's it, just play the song best you can and rock on!

| /  slide up
| \  slide down
| h  hammer-on
| p  pull-off
| ~  vibrato
| +  harmonic
| x  Mute note
===============================================================================
Suggest correction
What's this?
You can suggest a correction to this tab. Community and Mods will review your correction and vote to approve or reject it.
comments
print report bad tab
7 comments total. Showing first comments.
0 reply
xick 40 wrote on July 25 2005, 12:00 am

cant really say tht its 100% accurate

0 reply
darrenmaggot666 13 wrote on December 4 2005, 05:25 am

i cant find the lyrics to this song anywer!!! anyone happen to know them??

0 reply
AirGuitarist13 11 wrote on March 20 2006, 08:08 pm

This is really good, a few spots could use some fine tuning, no pun intended, but other than that is is really good

guest
You may want to rate the tab now too:
select rating
Please do not post tabs as comments. Select "correction" instead!