Oops, an error
Loading. Please wait.

Funny Little Feeling Bass Tab

version 2
version 2

Whole song

Interactive

562 views 3 this week
1 commentread comment
1 2 3 4 5
please rate
add to favorites
launch autoscroll
font size
0
reset
guitar tuner
Autoscroll
slow
fast
+/-
esc
set tempo
stop
Help us to improve Ultimate-Guitar.com Take our survey!
×
Difficulty
novice
-------------------------------------------------------------------------------
			     Funny Little Feeling - Rock N Roll Soldiers
-------------------------------------------------------------------------------

Tabbed By : ktekx	
e-mail: novelty[at]gmail[dot]com

Tuning: EADG


Start when the guitar plays (8 measures of the drums)

G|--------|--------|--------|--------|
D|--------|--------|--------|--------|
A|44444444|22222222|--------|--------|
E|--------|--------|44444444|22222222|   x3


G|--------|--------|--------|--------|
D|--------|--------|--------|--------|
A|44444444|22222222|--------|--------|
E|--------|--------|44444444|2--/---0|   x1




Rest for 1 second


G|--------|--------|--------|--------|
D|--------|--------|--------|--------|
A|4-44-444|------20|--------|--------|
E|--------|2-22-2--|4-44-444|2x2x2222|   x2



G|--------|--------|--------|--------|
D|--------|--------|--------|--------|
A|4-------|2-------|--------|----2-0-|
E|--------|--------|4-------|2--2----|   x2



G|--------|----------|--------|--------|
D|--------|----------|--------|--------|
A|4-24-2--|4-24-2/8\2|4-24-2--|4444--4-|
E|------34|----------|------34|--------|  x2



G|--------|--------|--------|--------|
D|--------|--------|--------|--------|
A|4-44-444|------20|--------|--------|
E|--------|2-22-2--|4-44-444|2x2x2222|   x2




G|--------|--------|--------|--------|
D|--------|--------|--------|--------|
A|4-44-444/7-77-777|--------|--------|
E|--------|--------|7-77-777|5-55-555|  x2


G|--------|--------|--------|--------|
D|--------|--------|--------|--------|
A|--------|--------|--------|--------|
E|5-55-555|5-55-577~--------|--------|


Rest (clapping and then 4 measures of drums)


G|--------|--------|--------|--------|
D|--------|--------|--------|--------|
A|4-44-444|------20|--------|--------|
E|--------|2-22-2--|4-44-444|2x2x2222|   x4


G|--------|--------|--------|--------|-------|
D|--------|--------|--------|--------|-------|
A|--------|--------|--------|--------|4------|
E|5-55-555|7-77-777|5-55-555|7-77-777|-------|



any mistakes, shoot me an email at novelty[at]gmail[dot]com
thanks

Suggest correction
Give kudos to tab author, rate the tab!
1 2 3 4 5
comments
print report bad tab
1 comment total.
0 reply
Rubber 219 wrote on January 22 2008, 10:47 am

in one of the first intro verses the bass has a little
jump:

G|--------|--------|--------|--------|
D|--------|--------|--------|--------|
A|44444444|22222222|--------|--
------|
E|--------|--------|44444444|22225555|

sometimes in the Choruses (namely the first chorus) the bass will do
this:

G|--------|--------|--------|--------|
D|--------|--------|--------|--------|
A|4-44-444|------20|--------|--
------|
E|--------|2-22-2--|4-44-444|2x2x2222|


G|---------|--------|--------|--------|
D|---------|--------|--------|--------|
A|4-2h4-444|------20|--------|--2x
----|
E|---------|2-22-2--|4-44-444|2x--5555|


Also, after the Rest(Clapping part) it does 2 normal chorus bars
and then 2
of:
G|--------|--------|--------|--------|
D|--------|--------|--------|--------|
A|4-44-444/7-77-777|--------|------
--|
E|--------|--------|7-77-777|5-55-555|


These are the only problems, apart from that it's a great tab, Thanks
for posting

guest
You may want to rate the tab now too:
select rating
Wanna post a correction for this tab? Suggest correction