Oops, an error
Loading. Please wait.

Gunz Out Tab

310 views 1 this week
no commentswrite comment
1 2 3 4 5
please rate
add to favorites
launch autoscroll
font size
0
reset
how to read this tab
guitar tuner
Tab Pro tools
  • play this tab
  • loop segment
  • change instrument
  • show fretboard
  • metronome
×
Best way to learn
"Gunz Out"
Autoscroll
slow
fast
+/-
esc
set tempo
stop
Contributor
Difficulty
novice
-------------------------------------------------------------------------------
               Gunz Out - Rock N' Roll Soldiers
                     So Many Musicians to Kill
-------------------------------------------------------------------------------

Tabbed by: Panji Brotoisworo
Email: panji66(AT)hotmail.com (Replace the 'at')

E-mail me for comments or PM me on my UG Profile - "Esparko"

Tuning: EADGBe

Legend

| /  slide up
| \  slide down
| ^  Bend the string
| h  hammer-on
| p  pull-off
| ~  vibrato
| ph Pinch Harmonic
| * Artifical Harmonic
| x  Mute note
================



================
Intro/Chorus
================

e|--------------------------|---------------------|
B|--------------------------|---------------------|
G|----------8-10-10-10-8----|-------7-8-8-8-7-----|
D|-10-10-10-8-10-10-10-8----|-8-8-8-7-8-8-8-7-----|
A|-10-10-10-6-8--8--8--6----|-8-8-8-5-6-6-6-5-----|
E|-8--8--8------------------|-6-6-6---------------|


At the end of the 2nd chorus there's also this pre-verse that comes after.

e|-----------------|-----------------|
B|-----------------|-----------------|
G|-----------------|-----------------|
D|-6-6-6-6-6-6-6-6-|-8-8-8-8-8-8-8-8-|
A|-6-6-6-6-6-6-6-6-|-8-8-8-8-8-8-8-8-|
E|-4-4-4-4-4-4-4-4-|-6-6-6-6-6-6-6-6-|




==============
Verse
==============

The notes are played on the upbeat during the verses.
This is played 2 times before proceeding into the pre-chorus

e|-------------------|-------------------|-------------------|
B|-------------------|-------------------|-------------------|
G|-------------------|-------------------|-------------------|
D|-------------------|-------------------|-x-3-x-3-x-3-x-3---|
A|---x-3-x-3-x-3-x-3-|---x-3-x-3-x-3-5-6-|-------------------|
E|-------------------|-------------------|-------------------|

e|-----------------|
B|-----------------|
G|-----------------|
D|-x-3-x-3-x-x-3-1-|
A|-----------------|
E|-----------------|

In the 2nd verse, there's another guitar that plays this bit
which are natural harmonics.

e|-----------------|
B|-----------------|
G|-----------------|
D|--3*--3*--3*-----|
A|-----------------|
E|-----------------|

Alternatively, you could also just pick the 20th fret on the high E string.


===============
Pre-Chorus
===============

e|-----------------|-------------------------|
B|-----------------|-------------------------|
G|-8-8-8-8-8-8-8-8-|-10-10-10-10-10-10-10-10-|
D|-8-8-8-8-8-8-8-8-|-10-10-10-10-10-10-10-10-|
A|-6-6-6-6-6-6-6-6-|-8--8--8--8--8--8--8--8--|
E|-----------------|-------------------------|


==============================
Na-na-na-na-na-na Part (1:27)
==============================

The amount of repetitions aren't right here because the guitarist
just strums certain notes a lot. Just listen to the recording and
get the feel for how many times you're suppose to strum it.

e|-------------------|-------------------|-----------------------------|
B|-------------------|-------------------|-----------------------------|
G|-------------------|-7-8-8-8-8-8-7-5---|--10-10-10-10-10-8-7-12-10-8-|
D|--10-10-10-10-10---|-7-8-8-8-8-8-7-5---|--10-10-10-10-10-8-7-12-10-8-|
A|--10-10-10-10-10---|-5-6-6-6-6-6-5-3---|--8--8--8--8--8--6-5-10-8--6-|
E|--8--8--8--8--8----|-------------------|-----------------------------|


=============
Break
=============



e|---------------------|------------------|-----------------------|
B|---------------------|------------------|-----------------------|
G|--x-8-x-10-x-10-x-10-|-x-10-x-10-x-10-8-|-x-8-x-10-x-10---8\----|
D|--x-8-x-10-x-10-x-10-|-x-10-x-10-x-10-8-|-x-8-x-10-x-10---8\----|
A|---------------------|------------------|-----------------------|
E|---------------------|------------------|-----------------------|





And then after the break it goes into the final chorus and ends on this
note which you strum 4 times.

e|------|
B|------|
G|------|
D|--10--|
A|--10--|
E|--8---|
comments
We did not receive enough feedback on this tab! Please rate:
print report bad tab
1 2 3 4 5
I want to post or [tab]
guest
You may want to rate the tab now too:
select rating
Please do not post tabs as comments. Select "correction" instead!