Oops, an error
Loading. Please wait.

Mom Is Home Tab

3,373 views 1 this week
no commentswrite comment
1 2 3 4 5
x 3
add to favorites
launch autoscroll
font size
0
reset
how to read this tab
guitar tuner
Autoscroll
slow
fast
+/-
esc
set tempo
stop
Help us to improve Ultimate-Guitar.com Take our survey!
×
Author
Difficulty
novice
Mom is home

from the 1976 musical Ma-ma (Russian/Romanian)
English title: Rock'n Roll Wolf
Norwegian tilte: Med Grimm og Gru

The main part is used in the song with the same name by A-Moe

Tabbed by Espen Myklebust (snurresprettert@yahoo.no)

NB: The notes should most likely be transposed up or down
since the guitar I used to tab this is not tuned correctly

Youtube link: http://www.youtube.com/watch?v=jtstIaOWPTY

Main part:
e|--------------------------------------------------|
B|--------8--8-10-8-7-----8--8-10-8-7---------------|
G|-----7-------------7----------------7----7--5-----|
D|-5--------------------9----------------9------9---|
A|--------------------------------------------------|
E|--------------------------------------------------|

e|--------------------------------------------------|
B|--------8--8-10-8-7-----8--8-10-8-7---------7-8---|
G|-----7-------------7----------------7----7--------|
D|-5--------------------9----------------9----------|
A|--------------------------------------------------|
E|--------------------------------------------------|

Bridge:
e|--------------------------------------------------|
B|-5555555-3---5-------333333-5--3--5-3-------------|
G|-----------5----5---------------------4-----------|
D|------------------5-------------------------------|
A|--------------------------------------------------|
E|--------------------------------------------------|

e|--------------------------------------------------|
B|-4444444-3---4-------3333333------6-3----3--------|
G|-----------5----5-2----------5--3-----(5)---------|
D|--------------------------------------------------|
A|--------------------------------------------------|
E|--------------------------------------------------|

Repeat main part

Youtube link: http://www.youtube.com/watch?v=jtstIaOWPTY
Suggest correction
Give kudos to tab author, rate the tab!
1 2 3 4 5
comments
print report bad tab
guest
You may want to rate the tab now too:
select rating
Wanna post a correction for this tab? Suggest correction