Oops, an error
Loading. Please wait.

Mal De Amores chords

33 views 1 this week
no commentswrite comment
1 2 3 4 5
3 more votes to show rating
add to favorites
×
Save as Personal and add changes to this tab that will be seen only by you. Learn more ›
×
You can save this tab as Personal to edit and correct it or add notes. All changes will be seen only by you. Learn more »
launch autoscroll
font size
0
reset
transpose
0
reset
display chords
guitar tuner
edit
Autoscroll
slow
fast
+/-
esc
set tempo
stop
Strumming
There is no strumming pattern for this song yet. and get +5 IQ
Bueno aquí dejo una canción de este grupo de buen rock!!!
a ver que tal os suena!!! ya sabeis, unas quintillas
y distorsión a tope!!!
DISFRUTAD LA MÚSICA!!!!!

INTRO:


e|----------------------------------------------------------
B|----------------------------------------------------------
G|----------------------------------------------------------
D|--7-5-7--7-5-7--3-2-3--3-2-3--5-3-5--5-3-5--2-0-2--3-2-0--
A|-5------5------1------1------3------3------0------------3-
E|----------------------------------------------------------

e|--------------------------------------------------------
B|--------------------------------------------------------
G|--------------------------------------------------------
D|--7-5-7--7-5-7----------------------17-15-17---17-15-17-
A|-5------5-------13-12-10----------15---------15---------
E|-------------------------13-12-10-----------------------


e|----------------------
B|----------------------
G|----------------------
D|--14-12-14-15-14-12---
A|12-----------------15-
E|----------------------


Arreglillo

e|---------------------------
B|---------------------------
G|3--3-1---5--5-3---7--7-5---
D|3------3-5------5-7------7-
A|1--------3--------5--------
E|---------------------------


D        A#
Aventura en la noche que
C                 A
mi resavia y tu olor
       (A#   C)               Lo del parentesis es un arreglillo,
no me dejan respirar          queda curioso si no lo haceis
D              A#             seguis con el A
no hay olvido
                     C
que se pierda por volar
                 A
en mis horas de bar
       (A#   C)
que no pasan sin pensar

A#        C               D    Aquí se puede hacer también
en lo que pudo ser y se fue    un arreglillo, lo que
               C               pongo arriba
las cosas del querer

A#        C
Que me pasó?
           D
que me faltó
          C
al despertar?

A#            C
mal de amores es lo que me pasa
   D                    C
su suerte es la vida y tu mi desgracia
A#        C             D
ay mal de amores sin final
A#             C
Mal de amores tu miel sabe amarga
   D                         C
el mundo un pañuelo y yo un moco en tus bragas
A#        C             D
ay mal de amores sin final


INTRO


No es mentira si te han dicho que
me han visto algo enganchado
y perdio en el rockalcohol
que de espacio que ha quedado en mi buzón
lo tendré que llenar aunque sea de emoción

que es lo que ya probé y se fue
el dulce de tu miel

A#        C
Que me pasó?
           D
que me faltó
          C
al despertar?

A#            C
mal de amores es lo que me pasa
   D                    C
su suerte es la vida y tu mi desgracia
A#        C             D
ay mal de amores sin final
A#             C
Mal de amores tu miel sabe amarga
   D                         C
el mundo un pañuelo y yo un moco en tus bragas
A#        C             D
ay mal de amores sin final

D                    A#           C             A    (A# C)
y ahora vuelvo a perderme en las calles de tu amor
D                      A#                    C            A   (A# C)
yo me niego a esconderme no esperes que te espere mi corazón

A#             C              D
que es lo que ya probé y se fue
                 C
el dulce del querer


A#        C
Que me pasó?
           D
que me faltó
          C
al despertar?

A#            C
mal de amores es lo que me pasa
   D                    C
su suerte es la vida y tu mi desgracia
A#        C             D
ay mal de amores sin final
A#             C
Mal de amores tu miel sabe amarga
   D                         C
el mundo un pañuelo y yo un moco en tus bragas
A#        C             D
ay mal de amores sin final

Final

e|-----------------
B|-----------------
G|-----------------
D|--7-5-7--7-5-7-8-
A|-5------5------8-
E|---------------6-

            
            
Suggest correction
Creating personal tab
Creating personal tab
You can edit any tab online and save it as your Personal.

You can edit, replace or remove any tab part or add personal notes – all changes will be seen only by you.

Personal tabs can be accessed anytime from any device, even offline.
Learn more »
Give kudos to tab author, rate the tab!
1 2 3 4 5
comments
print report bad tab
guest
Wanna post a correction for this tab? Suggest correction