Oops, an error
Loading. Please wait.

Heads Are Gonna Roll Tab

325 views 1 this week
no commentswrite comment
1 2 3 4 5
excellent!
x 1
add to favorites
launch autoscroll
font size
0
reset
how to read this tab
guitar tuner
Tab Pro tools
  • play this tab
  • loop segment
  • change instrument
  • show fretboard
  • metronome
Autoscroll
slow
fast
+/-
esc
set tempo
stop
Contributor
-----------------------------------------------------------------------------
                             Heads Are Gonna Roll - Rocket From the Crypt
-----------------------------------------------------------------------------
Tabbed by: oncenfutureidio

Tuning: standard EADGBe

Verse 1 & 2

e|---------------------------------------------------------------------------|
B|---------------------------------------------------------------------------|
G|------------------------5-5-5-5/-7-7-7-7-----------------------------------|
D|-5/-7-7-7\-5/-7-7-------5-5-5-5/-7-7-7-7-----------------------------------|
A|-5/-7-7-7\-5/-7-7--x3---3-3-3-3/-5-5-5-5-----------------------------------|
E|-3/-5-5-5\-3/-5-5----------------------------------------------------------|

Repeat this 4 times altogether for first verse and twice for second verse


Prechorus

e|---------------------------------------------------------------------------|
B|---------------------------------------------------------------------------|
G|-----9-9-----9-9-----9-9-7-7-7------9-9-9-9-9-9-9-9------------------------|
D|-----9-9-----9-9-----9-9-7-7-7--x3--9-9-9-9-9-9-9-9------------------------|
A|-7-7-7-7-7-7-7-7-7-7-7-7-5-5-5------7-7-7-7-7-7-7-7------------------------|
E|---------------------------------------------------------------------------|
   * *     * *     * *

Chorus

e|---------------------------------------------------------------------------|
B|---------------------------------------------------------------------------|
G|-------------------7-7-7-9-9-9---------------------------------------------|
D|-5/-7-7-7-7--------7-7-7-9-9-9---------------------------------------------|
A|-5/-7-7-7-7---x3---5-5-5-7-7-7---------------------------------------------|
E|-3/-5-5-5-5/11-------------------------------------------------------------|

repeat this twice for the first chorus and four times for second chorus

before verses play this

guitar 1
e|---------------------------------------------------------------------------|
B|---------------------------------------------------------------------------|
G|---------------------------------------------------------------------------|
D|-7-7-7-7-7-7-7-7-----------------------------------------------------------|
A|-7-7-7-7-7-7-7-7-----------------------------------------------------------|
E|-5-5-5-5-5-5-5-5-----------------------------------------------------------|

guitar 2
e|---------------------------------------------------------------------------|
B|---------------------------------------------------------------------------|
G|-b11-----------------------------------------------------------------------|
D|-b12--x7-------------------------------------------------------------------|
A|---------------------------------------------------------------------------|
E|---------------------------------------------------------------------------|

bridge

e|----------------------------------------------------------------------------|
B|----------------------------------------------------------------------------|
G|----------------------5-5-7-7-7---------------------------------------------|
D|-5-5-7-7-5-5-7-6------5-5-7-7-7---------------------------------------------|
A|-5-5-7-7-5-5-7-6 -x3--3-3-5-5-5---------------------------------------------|
E|-3-3-5-5-3-3-5-4------------------------------------------------------------|

repeat this altogether twice

e|---------------------------------------------------------------------------|
B|---------------------------------------------------------------------------|
G|-10-10-10-10-10-10-10-10-9-9-9-9-7-7-7-7-12-12-12-12-12-12-12-12-13-13-13--|
D|---------------------------------------------------------------------------|
A|-8--8--8--8--8--8--8--8--7-7-7-7-5-5-5-5-10-10-10-10-10-10-10-10-11-11-11--|
E|---------------------------------------------------------------------------|

e|---------------------------------------------------------------------------|
B|---------------------------------------------------------------------------|
G|-13-13-13-13-13------------------------------------------------------------|
D|---------------------------------------------------------------------------|
A|-11-11-11-11-11------------------------------------------------------------|
E|---------------------------------------------------------------------------|

e|--------------------------------14-14-14-14--------------------------------|
B|--------------------------------14-14-15-14--x8----------------------------|
G|-----------------11-11-13-13-13--------------------------------------------|
D|-11-11-12-11--x6-----------------------------------------------------------|
A|---------------------------------------------------------------------------|
E|---------------------------------------------------------------------------|

Outro

e|---------------------------------------------------------------------------|
B|---------------------------------------------------------------------------|
G|-7-------------------------------------------------------------------------|
D|-7------5-5-7-----7--------------------------------------------------------|
A|-5------5-5-7-----7--------------------------------------------------------|
E|--------3-3-5-----5--------------------------------------------------------|

Verse x4
Prechorus
Chorus x2
Verse x2
Prechorus
Chorus x4
Bridge
Chorus x4
Outro


************************************

| /   slide up
| \   slide down
| h   hammer-on
| p   pull-off
| ~   vibrato
| +   harmonic
| x   Mute note
| b   Bend
| pb  Pre-bend
| br  Bend release
| pbr Pre-bend release
| brb Bend release bend

************************************
comments
We did not receive enough feedback on this tab! Please rate:
print report bad tab
1 2 3 4 5
I want to post or [tab]
guest
You may want to rate the tab now too:
select rating
Please do not post tabs as comments. Select "correction" instead!