Oops, an error
Loading. Please wait.

On A Rope Bass Tab

version 1
version 1

Whole song

Interactive

1,743 views 1 this week
1 commentread comment
1 2 3 4 5
1 last vote to show rating
add to favorites
launch autoscroll
font size
0
reset
guitar tuner
Autoscroll
slow
fast
+/-
esc
set tempo
stop
Help us to improve Ultimate-Guitar.com Take our survey!
×
Song Title: On a Rope
Artist: Rocket From The Crypt
----------------------------------------------

Great Rocket song

Verse
G------------------------------
D------------------------------
A------------------------------
E-2-0-2--2-0-2--2-0-2-3-2-0-2--
(repeats 'till refrain)
Refrain
G--------------------------------
D--------------------------------
A-5-5-5-5-2-2-2-2---------0-0-0-0
E-----------------2-2-2-2--------
(2 1/2x first time, 3 1/2x next two times)

Bridge
G-----------------------------------
D-----------------------------------
A-----------------------------------
E-2-0-2--2-0-2--2-0-2--2-0-2--2-0-2-

G---------------------------------
D---------------------------------
A-5555555522222222--------00000000
E-----------------22222222--------
(repeat this part 2x)

The refrain switches back to the chorus 
for two measures and then goes into the bridge.
After the bridge it switches back to the chorus for
3 1/2x and then goes to the verse music afterwards.


I'd love to see more Rocket tabs.

Thanks.

Submitted by:  Op Ivy17 (Op Ivy17@aol)

Suggest correction
Give kudos to tab author, rate the tab!
1 2 3 4 5
comments
print report bad tab
1 comment total.
+2 reply
bal_sandher 60 Dec 29, 2007 04:09 PM

The verse goes: G------------------------------
D------------------------------

A------------------------------
E-2-0-2--2-0-2--2-0-2-5-2-0-2--

guest
You may want to rate the tab now too:
select rating
Wanna post a correction for this tab? Suggest correction