Oops, an error
Loading. Please wait.

On A Rope Bass Tab

version 2
version 2

Whole song

Interactive

1,689 views 1 this week
no commentswrite comment
1 2 3 4 5
1 last vote to show rating
add to favorites
launch autoscroll
font size
0
reset
guitar tuner
Autoscroll
slow
fast
+/-
esc
set tempo
stop
Help us to improve Ultimate-Guitar.com Take our survey!
×
Author
Artist: Rocket From The Crypt
Song: On A Rope
Album: Scream, Dracula, Scream!
Bassist: Petey X
Tuning: Standard
Tabbed By: Eamon

Intro/Verse: (at approximately 0:07)
G:|-----------------------------|
D:|-----------------------------|
A:|---------------------0-------|
E:|-2-0-2--2-0-2--2-0-2---2-0-2-| x8

Chorus: (at approximately 0:34)
G:|---------------------------------|
D:|---------------------------------|
A:|-5-5-5-5-2-2-2-2---------0-0-0-0-|
E:|-----------------2-2-2-2---------| x2

G:|-----------------|
D:|-----------------|
A:|-5-5-5-5-2-2-2-2-|
E:|-----------------| x1

Post-Chorus: (at approximately 0:49)
G:|----------------------------|
D:|----------------------------|
A:|----------------------------|
E:|-2-0-2--2-0-2--2-0-2--2-0-2-| x2

Verse: (at approximately 0:56)
G:|-----------------------------|
D:|-----------------------------|
A:|---------------------0-------|
E:|-2-0-2--2-0-2--2-0-2---2-0-2-| x8

Chorus: (at approximately 1:22)
G:|---------------------------------|
D:|---------------------------------|
A:|-5-5-5-5-2-2-2-2---------0-0-0-0-|
E:|-----------------2-2-2-2---------| x3

G:|-----------------|
D:|-----------------|
A:|-5-5-5-5-2-2-2-2-|
E:|-----------------| x1

Post-Chorus: (at approximately 1:44)
G:|----------------------------|
D:|----------------------------|
A:|----------------------------|
E:|-2-0-2--2-0-2--2-0-2--2-0-2-| x2

Bridge, part 1: (at approximately 1:51)
G:|-------------------------------------------|
D:|-------------------------------------------|
A:|-------------------------------------------|
E:|-2-0-2~-2-0-2~-2-0-2~-2-0-2~-2-0-2~-2-0-2~-| x1

Bridge, part 2: (at approximately 2:04)
G:|-------------------------------------|
D:|-------------------------------------|
A:|-55555555-22222222----------00000000-|
E:|-------------------22222222----------| x2

Chorus: (at approximately 2:17)
G:|---------------------------------|
D:|---------------------------------|
A:|-5-5-5-5-2-2-2-2---------0-0-0-0-|
E:|-----------------2-2-2-2---------| x3

G:|-----------------|
D:|-----------------|
A:|-5-5-5-5-2-2-2-2-|
E:|-----------------| x1

Post-Chorus: (at approximately 2:39)
G:|----------------------------|
D:|----------------------------|
A:|----------------------------|
E:|-2-0-2--2-0-2--2-0-2--2-0-2-| x4

Tablature Legend
----------------
~ = Sustain
Suggest correction
Give kudos to tab author, rate the tab!
1 2 3 4 5
comments
print report bad tab
guest
You may want to rate the tab now too:
select rating
Wanna post a correction for this tab? Suggest correction