Oops, an error
Loading. Please wait.

Poison Bass Tab

1,625 views 9 this week
1 commentread comment
1 2 3 4 5
1 last vote to show rating
add to favorites
launch autoscroll
font size
0
reset
guitar tuner
Autoscroll
slow
fast
+/-
esc
set tempo
stop
Help us to improve Ultimate-Guitar.com Take our survey!
×
Author
-------------------------------------------------------------------------------
                                              POISON - Rocket Juice And The Moon
-------------------------------------------------------------------------------
Tabbed by: viarry
E-mail: seawatchh@gmail.com

Tuning: standard (EADG)

intro
G|---------------------------------------------------------------------------|
D|-------------7---7--------------------9---9--------------------------------| x2
A|-----5--5--5---5----0-4-5-7-7--7-7--7---7---7---7-5-4--------4/24----------|
E|---------------------------------------------------------------------------|

chorus
G|---------------------------------------------------------------------------|
D|-------------7---7--------------------9---9--------------------------------| x2
A|-----5--5--5---5----0-4-5-7-7--7-7--7---7---7---7-5-4--------4/24----------|
E|---------------------------------------------------------------------------|

verse
G|---------------------------------------------------------------------------|
D|-------------7-7-------------7-7------4---7-----------4-4--7---------------|
A|---------7-7-----7-------777-----7-----------4-4--7-----------4-4--7-------|
E|-----5-5-------------555---------------------------------------------------|

G|---------------------------------------------------------------------------|
D|-------------7-7-------------7-7------4-4--7----------4-4--7---------------| 
A|---------7-7-----7-------777-----7-----------4-4--7-----------4-4--7-5-----|
E|-----5-5-------------555---------------------------------------------------|


repeat chorus, then verse, then chorus again


the bridge
G|---------------------------------------------------------------------------|
D|-------------7---7--------------------9---9--------------------------------| x2
A|-----5--5--5---5----0-4-5-7-7--7-7--7---7---7---7-5-4--------4/24----------|
E|---------------------------------------------------------------------------|

G|---------------------------------------------------------------------------|
D|-------------7-7-------------7-7------4--4--7---------4-4--7---------------| x2
A|---------7-7-----7-------777-----7------------4-4--7----------4-4--7-4-----|
E|-----5-5-------------555---------------------------------------------------|

the final chorus
G|---------------------------------------------------------------------------|
D|-------------7---7--------------------9---9--------------------------------|
A|-----5--5--5---5----0-4-5-7-7--7-7--7---7---7---7-5-4--------4/24----------|
E|---------------------------------------------------------------------------|

G|---------------------------------------------------------------------------|
D|-------------7---7--------------------9---9--------------------------------|
A|-----5--5--5---5----0-4-5-7-7--7-7--7---7---7---7-5-4----------------------|
E|---------------------------------------------------------------------------|


and that's it. not sure if it's 100% correct but I think it's pretty close. 
please rate and comment!
===============================================================================
Suggest correction
Give kudos to tab author, rate the tab!
1 2 3 4 5
comments
print report bad tab
1 comment total.
0 reply
viarry 61 Aug 14, 2012 12:09 PM

hey guys, of coursee its not
G|---------
D|---7---7-
A|-5---5---
E|---------
and
G|---------
D|--9----9-
A|-7---7---
E|--------- (in the chorus)

you should play an octave:
G|---7---7-
D|---------
A|-5---5---
E|---------
and
G|---9---9-
D|---------
A|-7---7---
E|---------
i'm sorry about that stupid mistake!!
enjoy :)

guest
You may want to rate the tab now too:
select rating
Wanna post a correction for this tab? Suggest correction