Oops, an error
Loading. Please wait.

No More Lies Tab

50 views 3 this week
no commentswrite comment
1 2 3 4 5
excellent!
x 4
add to favorites
launch autoscroll
font size
0
reset
how to read this tab
guitar tuner
Tab Pro tools
  • play this tab
  • loop segment
  • change instrument
  • show fretboard
  • metronome
×
Best way to learn
"No More Lies"
Autoscroll
slow
fast
+/-
esc
set tempo
stop
Contributor
Difficulty
intermediate
                                          Artist - Rocket Scientists
                                         ****************************
                                             Song - No More Lies
                                            *********************
                                             Album - Earthbound
                                            ********************
                                            Tabbed By - Ayreon77
                                           **********************



PIANO INTRO - Am Dm F Em
************
----------------------------------------
00:06
SOLO - Am Dm F Em G
*****
[---------------|---------|--br------------|
[---------------|--brp----|--5-------------|
[-----------s---|--7--5-7-|----5-----s-----|
[---h--5---5\7--|---------|------7--5\7-5--|
[--5-7---7------|---------|----------------|
[---------------|---------|----------------|


----------------------------------------
00:15
VERSE 1
********
C                            G
  There's a place in time to lend your love, its not a crime

C                           G  00:25 (play solo below)
  There is time for letting go 
F                            Em                     G        00:34 
  I wanna be the only one to light the spark of the midnight sun

F                       G  00:38
  Can we meet on higher ground.

 00:25                   00:34          00:38
[-----------------------|-7-9-7----s---|-----b---h--p---------------------|
[--------------------s--|-------8-8\10-|-12-13-12-13-12----------------13-|
[-----s--4-5-7--5-7-7\9-|--------------|----------------12-14----12-14----|
[-5--5\7----------------|--------------|----------------------12----------|
[-----------------------|--------------|----------------------------------|
[-----------------------|--------------|----------------------------------|


----------------------------------------
00:42
Chorus
*******
C             G               F                    (F G)
  Now there's time to breath, time for you and me
          C          G          Dm   F     (F G)
  No more lies, this time, this time
C                G              F            (F G)
  we'll walk the road in peace, to eternity
          C          G          Dm   F     (F G)
  No more lies, this time, this time.

----------------------------------------
01:10
SOLO - Am Dm F Em
*****  Am Dm F Em G
                                                            
[-----------|-----------|----------|------------|------------|
[-----h-----|-----------|-----s----|-brp--------|-5-8-8-6~-~-|
[-9--7-9-10-|-10-9-7----|----7\9-7-|-7--5--p----|------------|
[-----------|--------11-|-11-------|------7-5-7-|------------|
[-----------|-----------|----------|------------|------------|
[-----------|-----------|----------|------------|------------|

 rake
[----------------------|
[--6-5--------s--8-~-~-|
[-x----7-5-7-7\9-------|
[----------------------|
[----------------------|
[----------------------|


----------------------------------------
01:24
VERSE 2
********
C                         G
  On and on we run like a tiger finds his place in the sun
C                       G
  To the edge of modern times 
                       (modern times)
F
  She went out on the west bound train,
Em                      G
Stood and stared in the poring rain
F                               G
  Now shes back and we'll start again.

----------------------------------------
01:52
CHORUS
*******
C             G               F                    (F G)
  Now there's time to breath, time for you and me
          C          G          Dm   F   (F G)
  No more lies, this time, this time
C                G              F             (F G)
  we'll walk the road in peace, on eternally
          C          G          Dm   F   (F G) 
  No more lies, this time, this time.

----------------------------------------
02:17
BRIDGE
*******
F  G    Am    Dm         F
No more lies, tonight we touched the light
Em            G     Am   Dm
will are love never die, no no no
F                       Em          G                 C
Now that your back, the sunshine is right through the rain.

----------------------------------------
02:33
SOLO - C G F (F G) - C G Dm F (F G) - C G F (F G) - C G Dm F (F G)
*****       
[---------------|-----------------|-------------|---------brp----|
[----------s----|--------------s--|-brp-----b---|---------8--6---|
[---------3\5---|---------5-7-7\9-|-7--5-7--7-5-|--s--5--------9-|
[-----s-------7-|--s--5-7---------|-------------|-5\7---7--------|
[-3--5\7--------|-3\7-------------|-------------|----------------|
[---------------|-----------------|-------------|----------------|

                             rake    h p
[----------|----------------|---5-8-5-8-5-|------------------------|
[--s---8---|----p-----------|--x----------|-8--8-6-5------8-6-5----|
[-9\10---7-|-7-9-7-10-9-7-5-|-x-----------|----------7---x------5--|
[----------|----------------|-------------|-------------x----------|
[----------|----------------|-------------|------------------------|
[----------|----------------|-------------|------------------------|
                    hold note then relese bend
                    b
[--s---7-8-10-8-10-10--|
[-8\10-----------------|
[----------------------|
[----------------------|
[----------------------|
[----------------------|


----------------------------------------
03:02
VERSE 3
********
F                             Em                     G        03:07
  I wanna be the only one, to light the spark of the midnight sun
F                       G
  Can we meet on higher ground.

03:07 (this is low you don,t even have to play it)
[-17----------|
[----17-18----|
[----------17-|
[-------------|
[-------------|
[-------------|


----------------------------------------
03:15
CHORUS
*******
C             G               F                    (F G)
  Now there's time to breath, time for you and me
          C          G          Dm   F     (F G)
  No more lies, this time, this time
C                G              F            (F G)
  we'll walk the road in peace, to eternity
          C          G          Dm    
  No more lies, this time, this time.

----------------------------------------
03:41
BRIDGE
*******
F  G    C     G   F (F G)
No more lies 
 C       G         Dm
(No more lies this time)
      F   (F G)        C       G  F  (F G) C     G  Dm
We'll walk the road in peace,        to eternity Oh oh
F      G      F   Em   F   Em
On and on and on


http://www.myspace.com/rocketscientistsband

A great tune. Enjoy...........
comments
print report bad tab
I want to post or [tab]
guest
You may want to rate the tab now too:
select rating
Please do not post tabs as comments. Select "correction" instead!