Oops, an error
Loading. Please wait.

Rainy Days And Pastel Grays Tab

46 views 1 this week
no commentswrite comment
1 2 3 4 5
excellent!
x 4
add to favorites
launch autoscroll
font size
0
reset
how to read this tab
guitar tuner
Tab Pro tools
  • play this tab
  • loop segment
  • change instrument
  • show fretboard
  • metronome
×
Best way to learn
"Rainy Days And Pastel Grays"
Autoscroll
slow
fast
+/-
esc
set tempo
stop
Contributor
Difficulty
novice
                                          Artist - Rocket Scientists
                                         ****************************
                                     Song - Rainy Days And Pastel Grays
                                    ************************************
                                        Album - Brutal Architecture
                                       *****************************
                                            Tabbed By - Ayreon77
                                           **********************

--------------------------------------------------------------------------
--------------------------------------------------------------------------
There are are few groups who go by the name Rocket Scientists, or similar,
I,m not sure why that is. But this is the Symphonic Prog group,
these are from the USA. and an excellent group, I'm surprised
that there is not more tabs for these guys on Ultimate Guitar.       
--------------------------------------------------------------------------
--------------------------------------------------------------------------

VERSE 1
********
E                        A
Grays is the mid winters sky
E                        A
Seems like the sun never shines any more
E                       A
Snow on the hill echoes my cloudy days
D   A           E
I,m lost in the rain.

--------------------------------------------------
00:22
VERSE 2
********
B                     A
Off in the distance I heard a sound
B                      A
Echoes from long, long ago
  F#m          C#m
A ray of light upon the waste land
D               A            B           
Like a patch of green in the snow.

--------------------------------------------------
00:43
CHORUS
*******
G       D       C
Roll me out too sea
G     D         A
We,ve lived and dreamed here
G     D         C
Stars light the way
G           D        A
Through the dark and stormy
      F     C         F     C
Rainy days,    Pastel grays.

--------------------------------------------------
01:16
BANJO - E A E A E A  D A E
******   A Banjo contribution would be great,
         if anyone whats to figure it out.
--------------------------------------------------
01:37
VERSE 3
********
E                    A
Bottom has long gone away
E                    A
All the yellows have turned into gray
E                        A
Colours and seasons have faded away
D     A        E
Won't see them again.

--------------------------------------------------
01:59
VERSE 4
********
B                      A
Deep in the forest are old aging trees
B                    A
Rooted in long, long ago
F#m                C#m
Lines of life that carried the future
D       A             B  
So many seeds left to sow.

--------------------------------------------------
02:20
CHORUS
*******
G       D       C
Roll me out too sea
G     D         A
We,ve lived and dreamed here
G     D         C
Stars light the way
G       D       A
In the blue and under
       F      C           F     C
Pastel grays,    On Rainy days.

--------------------------------------------------
02:52
SOLO 1 - Dm Em C Dm G
*******   
[---s---s----12---h----|---------b---b-rp-h---s---s----]
[--8\10-\15-----10-12--|--8-10--10--10---8-10-\15-\17--]
[----------------------|-------------------------------]
[----------------------|-------------------------------]
[----------------------|-------------------------------]
[----------------------|-------------------------------]


--------------------------------------------------
03:03
KEYBOARD - Em
*********

--------------------------------------------------
03:40
SOLO 2 - Em D Em D Em
*******
[------------------------------------|----------------------s---s--br--]
[---s--s------------s---------s--s---|--------s--br---s---13\15-\17----]
[--4\9-\11-12-11--12\14-----9-\11\9--|---s--9-\11---12\14--------------]
[-----------------------12-----------|--7\9----------------------------]
[------------------------------------|---------------------------------]
[------------------------------------|---------------------------------]


--------------------------------------------------
04:02
KEYBOARD - Em
*********

--------------------------------------------------
04:39
SOLO 3 - Em D Em D                                      hold
*******  Em D A E                                         |
[--------------------------------------|---------------------------------]
[--b---rbp----b---brp------------------|------------------b-15--rbp------]
[-14--14--12-14--14--12-11----------11-|-11-12-14--12-14-14----14--12----]
[--------------------------12----12----|------------------------------14-]
[-----------------------------14-------|---------------------------------]
[--------------------------------------|---------------------------------]

               b r                  b
[-------------17--15-17-14-|-14-15-15-15-14-------|---s----b----]
[-17-17----15--------------|----------------15----|-15\17-17-17-]
[-------16-----------------|-------------------14-|-------------]
[--------------------------|----------------------|-------------]
[--------------------------|----------------------|-------------]
[--------------------------|----------------------|-------------]

                                          s
[--------------------------h------------12\-]
[-----------------s---10-10-12--12---12-----]
[----------s---7-7\9---------------9--------]
[----s--7-7\11------------------------------]
[-5-7\9-------------------------------------]
[-------------------------------------------]


--------------------------------------------------
05:11
ORGAN - B A B A F#m C#m D A E
******

--------------------------------------------------
05:33
CHORUS
*******
G       D       C
Roll me out too sea
G     D         A
We,ve lived and dreamed here
G     D         C
Stars light the way
G           D        A
Through the dark and stormy
      F     C         F     C
Rainy days,    Pastel grays.

--------------------------------------------------
06:05
CHORUS
*******
G       D       C
Roll me out too sea
G     D         A
We,ve lived and dreamed here
G     D         C
Stars light the way
G       D       A
In the blue and under
       F      C           F     C
Pastel grays,    On Rainy days.



http://www.myspace.com/rocketscientistsband


A great tune. Enjoy...............
comments
print report bad tab
I want to post or [tab]
guest
You may want to rate the tab now too:
select rating
Please do not post tabs as comments. Select "correction" instead!