Oops, an error
Loading. Please wait.

Dirty Tab

333 views 1 this week
2 commentsread comments
1 2 3 4 5
3 more votes to show rating
add to favorites
launch autoscroll
font size
0
reset
how to read this tab
guitar tuner
Autoscroll
slow
fast
+/-
esc
set tempo
stop
Help us to improve Ultimate-Guitar.com Take our survey!
×
Author
Difficulty
intermediate
-------------------------------------------------------------------------------
                             Dirty - Rocketface
-------------------------------------------------------------------------------
Tabbed by: Jason Sims
Email: froggyguitar@hotmail.com

Tuning: standard
*note*- Time signature 4/4
      - 0 above each beat

            INTRO
        0       0       0       0
e|------------------------------------|
B|------------------------------------|
G|----------3---------------3---------|
D|--[3]-5-5-3-5---5---3-5-5-3-5-------|  X4
A|--[3]-5-5-1-5---5---3-5-5-1-5-------|
E|--[1]-3-3---3---3---1-3-3---3-------|
 [dont play first chord first time through]

            VERSE
     0       0       0       0       0       0       0       0
e|-----------------------------------------------------------------|
B|-----------------------------------------------------------------|
G|---------------------------------------3---------------3---------|
D|-3-5-5---------------------------3-5-5-3-5---5---3-5-5-3-5-------| X2
A|-3-5-5---------------------------3-5-5-1-5---5---3-5-5-1-5-------|
E|-1-3-3---------------------------1-3-3---3---3---1-3-3---3-------|

             PRE CHORUS
   0       0       0       0       0       0       0       0      0  
e|---------------------------------------------------------------------|
B|---------------------------------------------------------------------|
G|-------------------3-3-3-3-3-3-3-3-5-5-5-5-5-5---3-5-5-5-5-5-5-------|
D|-3-5-5-5-5-5-5-5-5-3-3-3-3-3-3-3-3-5-5-5-5-5-5-3-3-5-5-5-5-5-5-------| X2
A|-3-5-5-5-5-5-5-5-5-1-1-1-1-1-1-1-1-3-3-3-3-3-3-3-1-3-3-3-3-3-3-------|
E|-1-3-3-3-3-3-3-3-3-----------------------------1---------------------|

             CHORUS
   0       0       0       0       0       0       0       0
e|---------------------------------------------------------------------|
B|---------------------------------------------------------------------|
G|-3-3-3-3-3-3-3-3-3-5-5-5-5-5-5-5-------------------------------------|
D|-3-3-3-3-3-3-3-3-3-5-5-5-5-5-5-5-5---5-5-3-5---5---5-5-5-3-5-5-5-----| X2
A|-1-1-1-1-1-1-1-1-1-3-3-3-3-3-3-3-5---5-5-3-5---5---5-5-5-3-5-5-5-----|
E|---------------------------------3---3-3-1-3---3---3-3-3-1-3-3-3-----|
   0       0       0       0       0       0       0       0       0
e|--------------------------------------------------------------------------
B|--------------------------------------------------------------------------
G|-3-3-3-3-3-3-3-3-3-3-3-3-3-3-3-3-5-5-5-5-5-5-5-5-5-5-5-5-5-5-5-5-12-12-12-
D|-3-3-3-3-3-3-3-3-3-3-3-3-3-3-3-3-5-5-5-5-5-5-5-5-5-5-5-5-5-5-5-5-12-12-12-
A|-1-1-1-1-1-1-1-1-1-1-1-1-1-1-1-1-3-3-3-3-3-3-3-3-3-3-3-3-3-3-3-3-10-10-10-
E|-----------------------------------------------------------------10-10-10-
     0           0          0
--------------------------------|
--------------------------------|
-12-12-12-12-12-12-12-12-12-----|
-12-12-12-12-12-12-12-12-12-----|
-10-10-10-10-10-10-10-10-10-----|
-10-10-10-10-10-10-10-10-10-----|

                        RE-INTRO
     0       0       0       0       0       0       0       0
e|-------------------------------------------------------------|
B|-------------------------------------------------------------|
G|-------3---------------3---------------3---------------3-----|
D|---5-5-3-5---5---3-5-5-3-5-------3-5-5-3-5---5---3-5-5-3-5---|  
A|---5-5-1-5---5---3-5-5-1-5-------3-5-5-1-5---5---3-5-5-1-5---|
E|---3-3---3---3---1-3-3---3-------1-3-3---3---3---1-3-3---3---|

----------PLAY VERSE
----------PLAY PRECHORUS
----------PLAY CHORUS

                         BRIDGE
    0        0        0        0
e|--------------------------------|
B|--------------------------------|
G|-----------------+12------------|
D|----------+12-------------------| X4 
A|-10-----------------------------|
E|--------------------------------|

---------SOLO (soon to come, sorry for the inconvenience)
---------CHORUS

           OUTRO
        0       0       0       0
e|------------------------------------|
B|------------------------------------|
G|----------3---------------3---------|
D|--[3]-5-5-3-5---5---3-5-5-3-5-------|  X3
A|--[3]-5-5-1-5---5---3-5-5-1-5-------|
E|--[1]-3-3---3---3---1-3-3---3-------|
 [dont play first chord first time through]




| /  slide up
| \  slide down
| h  hammer-on
| p  pull-off
| ~  vibrato
| +  harmonic
| x  Mute note
===============================================================================
Suggest correction
Give kudos to tab author, rate the tab!
1 2 3 4 5
comments
print report bad tab
2 comments total.
0 reply
RS-GUITARIST 114 Aug 26, 2006 05:10 PM

this song sounds like Van Halen

0 reply
hendrixfreak93 831 Aug 22, 2007 05:41 PM

looks good to me, and its a really good song too :D

guest
You may want to rate the tab now too:
select rating
Wanna post a correction for this tab? Suggest correction