Oops, an error
Loading. Please wait.

Johnny Guitar Tab

5,585 views 1 this week
no commentswrite comment
1 2 3 4 5
please rate
add to favorites
launch autoscroll
font size
0
reset
how to read this tab
guitar tuner
Autoscroll
slow
fast
+/-
esc
set tempo
stop
Help us to improve Ultimate-Guitar.com Take our survey!
×
Author
[Notes]
1. The introduction is in 3/4 time. Pause on bar 4.   Main theme then changes to a 4/4 
signature.
2. The main theme is simply played 4x.  Third time it is played an octave higher.  I 
tabbed that option.
3. The ending is tabbed separately, beginning from the ***

[Intro]

|-5---7---5---|-3---5---3---|-1---3---1---|-0-----------|
|-5---5---5---|-3---3---3---|-1---1---1---|-0-----------|
|-5---5---5---|-3---3---3---|-1---1---1---|-0-----------|
|-7---7---7---|-5---5---5---|-3---3---3---|-2-----------|
|-------------|-------------|-------------|-2-----------|
|-------------|-------------|-------------|-0-----------|
 Am (add 9th)  Gm (add 9th)  Fm (add 9th)  Em

[Main theme]

  1 2 3 4 5 6 7 8  1 2 3 4 5 6 7 8
|----------------|----------------|
|----------------|----------------|
|----------------|----------------|
|----------------|----------------|
|----------------|-2---------0-2-3|
|---------0-2---3|----------------|
                  Em


  1 2 3 4 5 6 7 8  1   2 3 4 5 6 7 8
|----------------|------------------|
|----------------|------------------|
|----------------|------------------|
|-0---------3---3|------------------|
|----------------|-2h3p2------------|
|----------------|------------------|
 Am                Em


  1 2 3 4 5 6 7 8  1 2 3 4 5 6 7 8
|----------------|----------------|
|----------------|----------------|
|----------------|----------------|
|----------------|----------------|
|----------------|-2---------0-2-3|
|---------0-2---3|----------------|
 Em               Em


  1 2 3 4 5 6 7 8  1   2 3 4 5 6 7 8
|----------------|------------------|
|----------------|------------------|
|----------------|------------------|
|-2---------0---0|------------------|
|----------------|-2h3p2-2----------|
|----------------|------------------|
 Am               Em


  1 2 3 4 5 6 7 8  1 2 3 4 5 6 7 8
|----------------|----------------|
|----------------|----------------|
|----------------|----------------|
|-------------2/-|-5---------5-4-2|
|----------------|----------------|
|----------------|----------------|
 Em                Em


  1 2 3 4 5 6 7 8  1 2 3 4   5 6 7 8
|----------------|------------------|
|----------------|------------------|
|----------------|------------------|
|-5---------2---2|-5-----4h5-2------|
|----------------|------------------|
|----------------|------------------|
 Am               Em


  1 2 3 4 5 6 7 8  1 2 3 4 5 6 7 8
|----------------|----------------|
|----------------|----------------|
|----------------|----------------|
|-------------2/-|-5---------5-4-2|
|----------------|----------------|
|----------------|----------------|
 Em               Em


  1 2 3 4 5 6 7 8  1 2 3 4 5 6 7 8
|----------------|----------------|
|----------------|----------------|
|-------------0--|----------------|
|-4---------4---4|-2---------2-4-2|
|----------------|----------------|
|----------------|----------------|
 F#m              Em


  1 2 3 4 5 6 7 8  1 2 3 4 5 6 7 8
|----------------|----------------|
|----------------|----------------|
|----------------|----------------|
|-0---------0-2-0|-------------0--|
|----------------|-3---------3---3|
|----------------|----------------|
 D                 C

(***)
  1 2 3 4 5 6 7 8  1 2 3 4 5 6 7 8
|----------------|----------------|
|----------------|----------------|
|----------------|----------------|
|----------------|----------------|
|-2---------2-2-2|-2--------------|
|----------------|---------0-2---3|
 B7


[Outro]

(***)
  1 2 3 4 5 6 7 8  1 2 3 4 5 6 7 8
|----------------|----------------|
|----------------|----------------|
|----------------|----------------|
|----------------|-------------0--|
|-2---------2-2-2|-3---------3---3|
|----------------|----------------|
 B7               C


  1 2 3 4 5 6 7 8  1 2 3 4 5 6 7 8
|----------------|----------------|
|----------------|----------------|
|----------------|----------------|
|----------------|----------------|
|-2---------2-2-2|-3-----3---3-3-3|
|----------------|----------------|
 B7               C


  1 2 3 4 5 6 7 8  1 2 3 4 5 6 7 8
|----------------|-0--------------|
|----------------|-0--------------|
|----------------|-0--------------|
|----------------|-2--------------|
|-3-------0------|-2--------------|
|------------3--2|-0--------------|
 (B7)    (triplet) Em
Suggest correction
What's this?
You can suggest a correction to this tab. Community and Mods will review your correction and vote to approve or reject it.
comments
We did not receive enough feedback on this tab! Please rate:
print report bad tab
1 2 3 4 5
guest
You may want to rate the tab now too:
select rating
Please do not post tabs as comments. Select "correction" instead!