Oops, an error
Loading. Please wait.

Dandy Tab

237 views 1 this week
no commentswrite comment
1 2 3 4 5
please rate
add to favorites
launch autoscroll
font size
0
reset
how to read this tab
guitar tuner
Tab Pro tools
  • play this tab
  • loop segment
  • change instrument
  • show fretboard
  • metronome
Autoscroll
slow
fast
+/-
esc
set tempo
stop
Contributor
dandy


The Rockin' Vickers


TRANSCRIBED BY RUDY GUZMAN


guzman_84@hotmail.com




                                               
e:-2--2-2-2-2-2-2-2-2--2--2-2-2-2-2-2-2-2--2--2-2-2-2-2-2-2-2--2--2-2-2-2-2-2-2-2-|
B:-3--3-3-3-3-3-3-3-3--3--3-3-3-3-3-3-3-3--3--3-3-3-3-3-3-3-3--3--3-3-3-3-3-3-3-3-|
G:-2--2-2-2-2-2-2-2-2--2--2-2-2-2-2-2-2-2--2--2-2-2-2-2-2-2-2--2--2-2-2-2-2-2-2-2-|
D:-0--0-0-0-0-0-0-0-0--0--0-0-0-0-0-0-0-0--0--0-0-0-0-0-0-0-0--0--0-0-0-0-0-0-0-0-|
A:-0--0-0-0-0-0-0-0-0--0--0-0-0-0-0-0-0-0--0--0-0-0-0-0-0-0-0--0--0-0-0-0-0-0-0-0-|
E:--------------------------------------------------------------------------------|

   dandy dandy where you gonna go now? who are you going to run to?
e:-2-2-2-2-2-2-2-2-2-2-2-2-2-2-2-2-2-2-2-2-2-2-2-2-2-2-2-2-2-2-|
B:-3-3-3-3-3-3-3-3-3-3-3-3-3-3-3-3-3-3-3-3-3-3-3-3-3-3-3-3-3-3-|
G:-2-2-2-2-2-2-2-2-2-2-2-2-2-2-2-2-2-2-2-2-2-2-2-2-2-2-2-2-2-2-|
D:-0-0-0-0-0-0-0-0-0-0-0-0-0-0-0-0-0-0-0-0-0-0-0-0-0-0-0-0-0-0-|
A:-0-0-0-0-0-0-0-0-0-0-0-0-0-0-0-0-0-0-0-0-0-0-0-0-0-0-0-0-0-0-|
E:-------------------------------------------------------------|


  All your little life...
                       x3
e:------------0-0-0-0-0-|
B:-1-1--1-1---1-1-1-1-1-|
G:-0-0--0-0---2-2-2-2-2-|
D:-2-2--0-0---2-2-2-2-2-|
A:-3-3--2-2---0-0-0-0-0-|
E:----------------------|

e:---3-3-3-3-----------|
B:---3-3-3-3--1-1--1-1-|
G:-0-0-0-0-0--0-0--0-0-|
D:-0-0-0-0-0--2-2--0-0-|
A:-2-2-2-2-2--3-3--2-2-|
E:-3-3-3-3-3-----------|

  dandy dandy chatting on the ladies...
e:-2-2-2-2-2-2-2-2-2-2-2-2-2-2-2-2-3-2-2-2-2-3-2-2-2-2-3-2-2-2-2-3-2-|
B:-3-3-3-3-3-3-3-3-3-3-3-3-3-3-3-3-3-3-3-3-3-3-3-3-3-3-3-3-3-3-3-3-3-|
G:-2-2-2-2-2-2-2-2-2-2-2-2-2-2-2-2-2-2-2-2-2-2-2-2-2-2-2-2-2-2-2-2-2-|
D:-0-0-0-0-0-0-0-0-0-0-0-0-0-0-0-0-0-0-0-0-0-0-0-0-0-0-0-0-0-0-0-0-0-|
A:-0-0-0-0-0-0-0-0-0-0-0-0-0-0-0-0-0-0-0-0-0-0-0-0-0-0-0-0-0-0-0-0-0-|
E:-------------------------------------------------------------------|

  pouring out your charm...
                       x3
e:------------0-0-0-0-0-|
B:-1-1--1-1---1-1-1-1-1-|
G:-0-0--0-0---2-2-2-2-2-|
D:-2-2--0-0---2-2-2-2-2-|
A:-3-3--2-2---0-0-0-0-0-|
E:----------------------|

  oh oh they long for
e:---3-3-3-3-----------|
B:---3-3-3-3--1-1--1-1-|
G:-0-0-0-0-0--0-0--0-0-|
D:-0-0-0-0-0--2-2--0-0-|
A:-2-2-2-2-2--3-3--2-2-|
E:-3-3-3-3-3-----------|

  dandy dandy knocking on the back door...
e:-2-2-2-2-2-2-2-2-2-2-2-2-2-2-2-2-3-2-2-2-2-3-2-2-2-2-3-2-2-2-2-3-2-|
B:-3-3-3-3-3-3-3-3-3-3-3-3-3-3-3-3-3-3-3-3-3-3-3-3-3-3-3-3-3-3-3-3-3-|
G:-2-2-2-2-2-2-2-2-2-2-2-2-2-2-2-2-2-2-2-2-2-2-2-2-2-2-2-2-2-2-2-2-2-|
D:-0-0-0-0-0-0-0-0-0-0-0-0-0-0-0-0-0-0-0-0-0-0-0-0-0-0-0-0-0-0-0-0-0-|
A:-0-0-0-0-0-0-0-0-0-0-0-0-0-0-0-0-0-0-0-0-0-0-0-0-0-0-0-0-0-0-0-0-0-|
E:-------------------------------------------------------------------|

                       x3
e:------------0-0-0-0-0-|
B:-1-1--1-1---1-1-1-1-1-|
G:-0-0--0-0---2-2-2-2-2-|
D:-2-2--0-0---2-2-2-2-2-|
A:-3-3--2-2---0-0-0-0-0-|
E:----------------------|

  oh oh you low down...
e:---3-3-3-3-----------|
B:---3-3-3-3--1-1--1-1-|
G:-0-0-0-0-0--0-0--0-0-|
D:-0-0-0-0-0--2-2--0-0-|
A:-2-2-2-2-2--3-3--2-2-|
E:-3-3-3-3-3-----------|

   dandy dandy
e:-2-2-2-2-2-2-2-2-2-2-2-2-2-2-2-2-3-2-2-2-2-3-2-2-2-2-3-2-2-2-2-3-2-|
B:-3-3-3-3-3-3-3-3-3-3-3-3-3-3-3-3-3-3-3-3-3-3-3-3-3-3-3-3-3-3-3-3-3-|
G:-2-2-2-2-2-2-2-2-2-2-2-2-2-2-2-2-2-2-2-2-2-2-2-2-2-2-2-2-2-2-2-2-2-|
D:-0-0-0-0-0-0-0-0-0-0-0-0-0-0-0-0-0-0-0-0-0-0-0-0-0-0-0-0-0-0-0-0-0-|
A:-0-0-0-0-0-0-0-0-0-0-0-0-0-0-0-0-0-0-0-0-0-0-0-0-0-0-0-0-0-0-0-0-0-|
E:-------------------------------------------------------------------|

  dandy you know you're moving much too fast...
                                           x2
e:------------------------------------------|
B:---2---2---2---2---2----6---6---6---6---6-|
G:---3---3---3---3---3----6---6---6---6---6-|
D:---4---4---4---4---4----6---6---6---6---6-|
A:---4---4---4---4---4--4-4-4-4-4-4-4-4-4-4-|
E:-2-2-2-2-2-2-2-2-2-2----------------------|

   turn round dear and see the people...
e:---------------------------------------|
B:---7----7---7----7----6----6----6----6-|
G:---7----7---7----7----6----6----6----6-|
D:---7--7-7---7--7-7----6--6-6----6--6-6-|
A:-5--------5---------4---------4--------|
E:---------------------------------------|

   and when you're old and grey...
e:-------------3-3-3-3-3-3--2-2-2-2-2-2--1--1-1-1-1-1-|
B:-2--2-2-2-2--3-3-3-3-3-3--2-2-2-2-2-2--1--1-1-1-1-1-|
G:-2--2-2-2-2--4-4-4-4-4-4--3-3-3-3-3-3--2--2-2-2-2-2-|
D:-2--2-2-2-2--5-5-5-5-5-5--4-4-4-4-4-4--3--3-3-3-3-3-|
A:-0--0-0-0-0--5------------4------------3------------|
E:-------------3------------2------------1------------|

e:-------------3-3-3-3-3-3--2-2-2-2-2-2--1--1--|
B:-2--2-2-2-2--3-3-3-3-3-3--2-2-2-2-2-2--1--1--|
G:-2--2-2-2-2--4-4-4-4-4-4--3-3-3-3-3-3--2--2--|
D:-2--2-2-2-2--5-5-5-5-5-5--4-4-4-4-4-4--3--3--|
A:-0--0-0-0-0--5------------4------------3--3--|
E:-------------3------------2------------1--1--|

  dandy dandy when are you going to give up?...
e:-2-2-2-2-2-2-2-2-2-2-2-2-2-2-2-2-3-2-2-2-2-3-2-2-2-2-3-2-2-2-2-3-2-|
B:-3-3-3-3-3-3-3-3-3-3-3-3-3-3-3-3-3-3-3-3-3-3-3-3-3-3-3-3-3-3-3-3-3-|
G:-2-2-2-2-2-2-2-2-2-2-2-2-2-2-2-2-2-2-2-2-2-2-2-2-2-2-2-2-2-2-2-2-2-|
D:-0-0-0-0-0-0-0-0-0-0-0-0-0-0-0-0-0-0-0-0-0-0-0-0-0-0-0-0-0-0-0-0-0-|
A:-0-0-0-0-0-0-0-0-0-0-0-0-0-0-0-0-0-0-0-0-0-0-0-0-0-0-0-0-0-0-0-0-0-|
E:-------------------------------------------------------------------|

  you always would be free..
                       x3
e:------------0-0-0-0-0-|
B:-1-1--1-1---1-1-1-1-1-|
G:-0-0--0-0---2-2-2-2-2-|
D:-2-2--0-0---2-2-2-2-2-|
A:-3-3--2-2---0-0-0-0-0-|
E:----------------------|

  and dandy...
e:---3-3-3-3-----------|
B:---3-3-3-3--1-1--1-1-|
G:-0-0-0-0-0--0-0--0-0-|
D:-0-0-0-0-0--2-2--0-0-|
A:-2-2-2-2-2--3-3--2-2-|
E:-3-3-3-3-3-----------|

                       x6
e:-2--2-2-3-2-----------|
B:-3--3-3-3-3--1-1--1-1-|
G:-2--2-2-2-2--0-0--0-0-|
D:-0--0-0-0-0--2-2--0-0-|
A:-0--0-0-0-0--3-3--2-2-|
E:----------------------|

   you're alright
e:-2--2-2-2-2-2-2-2-2-3-3-3-3-3-3-3-3-2--|
B:-3--3-3-3-3-3-3-3-3-3-3-3-3-3-3-3-3-3--|
G:-2--2-2-2-2-2-2-2-2-2-2-2-2-2-2-2-2-2--|
D:-0--0-0-0-0-0-0-0-0-0-0-0-0-0-0-0-0-0--|
A:-0--0-0-0-0-0-0-0-0-0-0-0-0-0-0-0-0-0--|
E:---------------------------------------|




http://koti.mbnet.fi/wdd/rockinvickers.htm                                   website

http://www.facebook.com/pages/The-Rockin-Vickers/104010312970141             facebook/wikipedia

http://www.freewebs.com/rockinvicars/                                        website

http://itunes.apple.com/us/artist/the-rockin-vickers/id165748896             itunes




hillo son mex

29/07/11
comments
We did not receive enough feedback on this tab! Please rate:
print report bad tab
1 2 3 4 5
I want to post or [tab]
guest
You may want to rate the tab now too:
select rating
Please do not post tabs as comments. Select "correction" instead!