Oops, an error
Loading. Please wait.

Christmas Single Chords

version 3
version 3

Whole song

7,631 views 12 this week
no commentswrite comment
1 2 3 4 5
excellent!
x 3
add to favorites
launch autoscroll
font size
0
reset
transpose
0
reset
simplify chords
display chords
guitar tuner
Autoscroll
slow
fast
+/-
esc
set tempo
stop
Help us to improve Ultimate-Guitar.com Take our survey!
×
Author
Difficulty
intermediate
-------------------------------------------------------------------------------
                        CHRISTMAS SINGLE - Rocksteddy
-------------------------------------------------------------------------------

Tabbed by: Lino
Email: lynus4144@yahoo(dot)com

Tuning: Standard


Intro: D - G - D - G


D                    G
Malamig ang simoy ng hangin
D                    G
Mga bata sa labas na nangangaroling
D                         G
Mga parol na patay sindi, makukulay na palamuti
D                     G
Sa Christmas tree, sa Christmas tree

   Bm       G              A
Naglalakad, ka ng mag-isa, walang kasama

D           G       D            G
Kawawa ka naman, at single ka ngayong pasko
        D           G               D           G
Ilang taon ka ng ganyan, ka-date mo nanaman ang nanay mo
   A         Bm                A    G
At bibili na lang ng Christmas card
   A         Bm            A G
At susulatan ko na lang ito
   Bm               G         A          D
Ng Merry Christmas, Happy New Year to me


         D                  G
Di mo ba napupuna, di mo na nakikita
  D                     G
Lahat sila may kasama, ikaw lang ang wala
         D                   G
Di mo ba napapansin, di kaba naiinggit
  D                              G
Lahat sila may syotang malupit, ikaw walang ka-date

   Bm             G                       A
Naglalakad ka, sa mall ng mag-isa, walang kasama

D           G       D            G
Kawawa ka naman, at single ka ngayong pasko
        D           G               D           G
Ilang taon ka ng ganyan, ka-date mo nanaman ang nanay mo
   A         Bm                A
At bibili na lang ng Christmas card
              G
(bibili na lang ng Christmas card)
   A         Bm            A
At susulatan ko na lang ito
               G
(dro-drowingan ko)
   Bm               G         A          D
Ng Merry Christmas, Happy New Year to me


Adlib: D - G - D - G
       Em - D/F# (or F#m) - G
       Em - D/F# (or F#m) - G

e|---------------------------------------------------------------------------|
B|--15-14-15-14h15~----3s15-14-15-14~-14h15~--14-12-10~----------------------|
G|---------------------------------------------------------------------------|
D|---------------------------------------------------------------------------|
A|---------------------------------------------------------------------------|
E|---------------------------------------------------------------------------|

e|---------------------------------------------------------------------------|
B|--10b(12)-10~--------------------------------------------------------------|
G|--------------12-11-12p11-9h11p9-7-9b(11)-7~-------------------------------|
D|---------------------------------------------------------------------------|
A|---------------------------------------------------------------------------|
E|---------------------------------------------------------------------------|

e|--19~-17--15-14-15-14------------------------------------------------------|
B|----------------------17b(19)-17~-17b(19)---17-15--------------------------|
G|--------------------------------------------------16~----------------------|
D|---------------------------------------------------------------------------|
A|---------------------------------------------------------------------------|
E|---------------------------------------------------------------------------|


* figure out the rest! =)


| b  bend (yung number sa loob ng parenthesis,
           yun yung tono nya dapat pag-bend mo ng string)
| s  slide
| h  hammer-on
| p  pull-off
| ~  vibrato
===============================================================================
Suggest correction
Give kudos to tab author, rate the tab!
1 2 3 4 5
comments
print report bad tab
guest
You may want to rate the tab now too:
select rating
Wanna post a correction for this tab? Suggest correction