Oops, an error
Loading. Please wait.

Kung Magiging Tayo Tab

70 views 6 this week
no commentswrite comment
1 2 3 4 5
3 more votes to show rating
add to favorites
launch autoscroll
font size
0
reset
how to read this tab
guitar tuner
Autoscroll
slow
fast
+/-
esc
set tempo
stop
Help us to improve Ultimate-Guitar.com Take our survey!
×
Author
Difficulty
novice
[Intro]
e|------------0----------------0----------------0--------------0------------|
B|--------3-----3---3------3-----3---3------3-----3---3-----------0---0-----|
G|------2---2-----2------2---2-----2------2---2-----2--------2--------------|
D|----0----------------------------------------------------2--------2-------|
A|-------------------------------------------------------0------------------|
E|---------------------2----------------3-----------------------------------|

e|------------0--------------0-----------------0--------------0--------0----|
B|--------3-----3---3------3----3---3------3-----3---3----------0---0--2----|
G|------2---2-----2------2--------2------2---2-----2--------2----------0----|
D|----0---------------------------------------------------2-------2----2----|
A|------------------------------------------------------0--------------0----|
E|---------------------2---------------3------------------------------------|

[Verse 1]
e|------------0----------------0----------------0--------------0------------|
B|--------3-----3---3------3-----3---3------3-----3---3-----------0---0-----|
G|------2---2-----2------2---2-----2------2---2-----2--------2--------------|
D|----0----------------------------------------------------2--------2-------|
A|-------------------------------------------------------0------------------|
E|---------------------2----------------3-----------------------------------|

e|------------0--------------0-----------------0--------------0-------------|
B|--------3-----3---3------3----3---3------3-----3---3------3---3---3-------|
G|------2---2-----2------2--------2------2---2-----2------2-------2---------|
D|----0---------------------------------------------------------------------|
A|--------------------------------------------------------------------------|
E|---------------------2---------------3----------------2-------------------|

[Refrain]
e|-------------------------------------------0------------------------------|
B|---------0-----0----------3-----3--------3---3----------------------------|
G|-------2-----2---0------0-----0---0----2---------0------------------------|
D|-----2-----2----------0-----0------------------0--------------------------|
A|---0----------------------------------------------------------------------|
E|--------------------3----------------2------------------------------------|

e|---------0----------------0------0----------------------------------------|
B|-------3---3---3--------0---0----2----------------------------------------|
G|-----0-------0--------2-------2--0----------------------------------------|
D|--------------------2------------2----------------------------------------|
A|------------------0--------------0----------------------------------------|
E|---3----------------------------------------------------------------------|

[Chorus]
Dsus2 Dsus2/F# G6 Asus2
Just strum the chords for the Chorus.

Lead
[Intro]
e|--------------------------------------------------------------------------|
B|---7-8-10--8-7------------------------------------------------------------|
G|---------------7/9--9/11-11\9---------------------------------------------|
D|--------------------------------------------------------------------------|
A|--------------------------------------------------------------------------|
E|--------------------------------------------------------------------------|

e|---------------10---------------------------------------------------------|
B|-------7-8-10-----10/12-10------------------------------------------------|
G|-----7--------------------------------------------------------------------|
D|---7----------------------------------------------------------------------|
A|--------------------------------------------------------------------------|
E|--------------------------------------------------------------------------|

e|--------------------------------------------------------------------------|
B|---7-8--7----------------10-----------------------------------------------|
G|----------7/9-7-6---9/11--------------------------------------------------|
D|--------------------------------------------------------------------------|
A|--------------------------------------------------------------------------|
E|--------------------------------------------------------------------------|

[Interlude]
e|--------------------------------------------------------------------------|
B|---8/10-------10/12-10-------7-7------------------------------------------|
G|--------7-6/7------------7-9-----9-7--------------------------------------|
D|-------------------------------------7------------------------------------|
A|--------------------------------------------------------------------------|
E|--------------------------------------------------------------------------|

[Solo]
e|--------------------------------------------------------------------------|
B|---8/10-------10/12-10-------8/10-8---7-7h8-7-----------------------------|
G|--------7-6/7----------7\6-7------------------7-7/9—9p7\6-7-9-------------|
D|--------------------------------------------------------------------------|
A|--------------------------------------------------------------------------|
E|--------------------------------------------------------------------------|

e|-----------------------10/12-10-------------------------------------------|
B|---8/10-------10/12-10----------10-10/12-10--8-7-7h8-7--------------------|
G|--------7-6/7------------------------------------------7-7/9--------------|
D|--------------------------------------------------------------------------|
A|--------------------------------------------------------------------------|
E|--------------------------------------------------------------------------|

e|--------10--------12--------14----14--------------------------------------|
B|--------------------------------------------------------------------------|
G|---9/11-----11/12-----12/14----14-----------------------------------------|
D|--------------------------------------------------------------------------|
A|--------------------------------------------------------------------------|
E|--------------------------------------------------------------------------|

[Coda]
e|---10---------------------------------------------------------------------|
B|------10----10--7-8-10-8-7------------------------------------------------|
G|---------11----------------7/9-9/11-11-9----------------------------------|
D|--------------------------------------------------------------------------|
A|--------------------------------------------------------------------------|
E|--------------------------------------------------------------------------|

e|---10---------------------------------------------------------------------|
B|------10----10--7-8-8-10-8-7----------------------------------------------|
G|---------11------------------7-7/9-11-9-----------------------------------|
D|--------------------------------------------------------------------------|
A|--------------------------------------------------------------------------|
E|--------------------------------------------------------------------------|

e|--------------------------------------------------------------------------|
B|------------10--------10-10---------10------------------------------------|
G|---11-11-12-----11-12---------11-12----11-9-------------------------------|
D|--------------------------------------------------------------------------|
A|--------------------------------------------------------------------------|
E|--------------------------------------------------------------------------|

e|------------10-10---------------------------------------------------------|
B|---------10--------7-8-10--8-7--------------------------------------------|
G|---11-12-----------------------7-7/9---9-7--------------------------------|
D|--------------------------------------------------------------------------|
A|--------------------------------------------------------------------------|
E|--------------------------------------------------------------------------|
Suggest correction
Give kudos to tab author, rate the tab!
1 2 3 4 5
comments
print report bad tab
guest
You may want to rate the tab now too:
select rating
Wanna post a correction for this tab? Suggest correction