Oops, an error
Loading. Please wait.

No Touch bass

version 1
version 1

Whole song

6,322 views 3 this week
1 commentread comment
1 2 3 4 5
3 more votes to show rating
add to favorites
×
Save as Personal and add changes to this tab that will be seen only by you. Learn more ›
×
You can save this tab as Personal to edit and correct it or add notes. All changes will be seen only by you. Learn more »
launch autoscroll
font size
0
reset
guitar tuner
edit
Autoscroll
slow
fast
+/-
esc
set tempo
stop
Author
Song: No Touch
Band: Rocksteddy
Tabbed by: Gio Agudo


Intro:
G|-----------------------|
D|---------------7-------|
A|-----------7h9---7-7-9-|
E|-5-5-s7-h9-------------|


Verse:
G|-----------------------|
D|---------------7-------|
A|-----------7h9---7-7-9-|
E|-5-5-s7-h9-------------|


Refrain:
G|------------------------------------------------------|
D|------------------------------------------------------|
A|-5-5-5-5-----------5-5-5-5-----------5-5-5-5-s7-5-4-2-|
E|---------5h7-7-7-7---------5h7-7-7-7------------------|

G|-----------------------|
D|---------------7-------|
A|-----------7h9---7-7-9-|
E|-5-5-s7-h9-------------|


Repeat Verse and Refrain


Chorus:
G|-------------------------------------------------|
D|-------------------------------------------------|
A|----------------------------------------s7-7-7-7-|
E|-2222-s5555--2222s5555--2222s5555--2222----------|


Solo:
G|---------------|-----------------------|---------------|------------|
D|---------------|---------------7-------|---------------|------------|
A|-55-55---55-55-|-----------7h9---7-7-9-|-55-55---55-55-|---------7x-|
E|-------5-------|-5-5-s7-h9-------------|-------5-------|-7-7-7h9----|


Repeat Verse,Refrain and Chorus

Outro:
G|------------------------------------------------------|
D|------------------------------------------------------|
A|-5-5-5-5-----------5-5-5-5-----------5-5-5-5-s7-5-4-2-|
E|---------5h7-7-7-7---------5h7-7-7-7------------------|

G|-------------------------|
D|---------------7---------|
A|-----------7h9---9-7-----|
E|-5-5-s7-h9-----------5-x-|

            
            
Suggest correction
Creating personal tab
Creating personal tab
You can edit any tab online and save it as your Personal.

You can edit, replace or remove any tab part or add personal notes – all changes will be seen only by you.

Personal tabs can be accessed anytime from any device, even offline.
Learn more »
Give kudos to tab author, rate the tab!
1 2 3 4 5
comments
print report bad tab
1 comment total.
0 reply
vendettas 30 May 31, 2010 03:26 PM

sure ba to boy?

guest
You may want to rate the tab now too:
select rating
Wanna post a correction for this tab? Suggest correction