Oops, an error
Loading. Please wait.

No Touch tab

version 3
version 3

Whole song

1,536 views 1 this week
8 commentsread comments
1 2 3 4 5
1 last vote to show rating
add to favorites
×
Save as Personal and add changes to this tab that will be seen only by you. Learn more ›
×
You can save this tab as Personal to edit and correct it or add notes. All changes will be seen only by you. Learn more »
launch autoscroll
font size
0
reset
how to read this tab
guitar tuner
edit
Autoscroll
slow
fast
+/-
esc
set tempo
stop
Author
No Touch by Rocksteddy
Hopia, Mani, Popcorn
tabbed by Leonard Ayudan
Tunning: EADGBE

| /  slide up
| \  slide down
| h  hammer-on
| p  pull-off
| ~  vibrato
| +  harmonic
| .  Mute note
| *  repeat the signature in prescribe times
| || end of signature

Just made an update guys...itinama ko yung iba...
alternate picking is essential...

 E-15p14-------------14-15p14-------------14-15p14-------------14-15p14--|
 B-------13----13-13----------13----13-13----------13----13-13-----------|
 G----------12-------------------12-------------------12-----------------|
 D-----------------------------------------------------------------------|
 A-----------------------------------------------------------------------|
 E-----------------------------------------------------------------------|

 E------------14-15p14-------------14-15p14-------------14-15p14---------|
 B-13----13-13----------13----13-13----------13----13-13----------13-----|
 G----12-------------------12-------------------12-------------------12--|
 D-----------------------------------------------------------------------|
 A-----------------------------------------------------------------------|
 E-----------------------------------------------------------------------|

 E-------14p15-16----------14p15-14-------------14p15-16----------------|
 B-13-13----------13----13----------13----13-13----------13-------------|
 G-------------------12----------------12-------------------12--13--11--|
 D----------------------------------------------------------------------|
 A----------------------------------------------------------------------|
 E----------------------------------------------------------------------|

 E----------------------------------------------------------------------|
 B-10-8-6~--------------------------------------------------------------|
 G----------------------------------------------------------------------|
 D----------------------------------------------------------------------|
 A----------------------------------------------------------------------|
 E----------------------------------------------------------------------|

 Riff 1

 E----------------------------------------------------------------------|
 B----------------------------------------------------------------------|
 G----------------------------------------------------------------------|
 D--------------------5--7--5-------------------------------------------|
 A-5-----------5--7------------7--5~~-----------------------------------|
 E-3----5--7------------------------------------------------------------|

 E----------------------------------------------------------------------|
 B----------------------------------------------------------------------|
 G-------------------5--7--5--------------------------------------------|
 D-5----------5--7------------7--5~~------------------------------------|
 A-3----5--7------------------------------------------------------------|
 E----------------------------------------------------------------------|

 Verse: use riff 1

 Refrain:

                            3x
 E*--------------------------*||---|| |-------------------------------||
 B*--------------------------*||---|| |-------------------------------||
 G*--------------------------*||---|| |-------------------------------||
 D*-5--5--5--5---------------*||---|| |-------------5--7--5-----------||
 A*-3--3--3--3--7--7--7--7---*||-5-|| |-------5--7-----------7--5~~---||
 E*-------------5--5--5--5---*||-3-|| |-5--7--------------------------||
                Kita maiuu------wi..


Chorus:

 E----------------------------------------------------------------------|
 B----------------------------------------------------------------------|
 G----------------------------------------------------------------------|
 D--------------------5--7--5-------------------------------------------|
 A-5-----------5--7------------7--5~~-----------------------------------|
 E-3----5--7------------------------------------------------------------|
   Sige na....sige na!!

                            3x
 E*------------|-------------*||
 B*------------|-------------*||
 G*------------|-------------*||
 D*------------|-------------*||
 A*-2--2--2--2-|-5--5--5--5--*||
 E*-0--0--0--0-|-3--3--3--3--*||
  pahipo na.....man   No Touch...

 E------------|-----------------------||
 B------------|-----------------------||
 G------------|-----------------------||
 D------------|-----------------------||
 A-2--2--2--2-|-5--5--5--5--5--5--5--5||
 E-0--0--0--0-|-3--3--3--3--3--3--3--3||
   Matyansingan.....................

tinama ko lang yung sa refrain..typographical error hehe..cno ba may effects jan ng bass 
Buying ako...(feel ko mag-ala-Cliff Burton)
sorry guys di ko mailalagay yung lead kasi ayaw ibigay ng lead guitarist namin yung music sheet nya...

            
            
Suggest correction
Creating personal tab
Creating personal tab
You can edit any tab online and save it as your Personal.

You can edit, replace or remove any tab part or add personal notes – all changes will be seen only by you.

Personal tabs can be accessed anytime from any device, even offline.
Learn more »
Give kudos to tab author, rate the tab!
1 2 3 4 5
comments
print report bad tab
8 comments total. Showing first comments.
0 reply
marcoRAKIZTA 41 Apr 29, 2007 08:05 PM

gawa ka naman nung nasa scale na please lang poh...ung ADLIB
yang intro mo ba tama yan sa tingin ko hinde eh.....T_T

0 reply
doobidoo 6,271 Apr 29, 2007 08:32 PM

Taasan mo pa ng 2 frets...from g to a..dapat sa A...heheheh

0 reply
cabeza 277 May 06, 2007 06:32 PM

mukhang mejo mataas yata kapag sa A hehe...kaw ba, ano ba gamit mo root note sa kantang ito??

guest
You may want to rate the tab now too:
select rating
Wanna post a correction for this tab? Suggest correction