Oops, an error
Loading. Please wait.

Siente tab

by Rockvox
23 views 1 this week
no commentswrite comment
1 2 3 4 5
3 more votes to show rating
add to favorites
×
Save as Personal and add changes to this tab that will be seen only by you. Learn more ›
×
You can save this tab as Personal to edit and correct it or add notes. All changes will be seen only by you. Learn more »
launch autoscroll
font size
0
reset
how to read this tab
guitar tuner
edit
Autoscroll
slow
fast
+/-
esc
set tempo
stop
Rockvox: siente
Intro
Riff (guitar 3)
E||-------4--4--4------|
B||-----5--5--5--5-----|
G||---6-----6--6--6----|X2
D||-6------------------|
A||--------------------|
E||--------------------|

E||-------4--4--4------|
B||-----5--5--5--5-----|
G||---6-----6--6--6----|X2
D||-4------------------|
A||--------------------|
E||--------------------|


Entran 2 guitarras
guitarra2 toca A8
guitarra1 toca esto (Riff2)
E||---12-11----9-------|
B||---------12---------|
G||--------------------|

E||---12-11-14---------|
B||------------12------|
G||--------------------|

E||---12-11----9-------|
B||---------12---------|
G||--------------------|

E||---12-11-14-16------|
B||--------------------|
G||--------------------|

Guitar 3(Riff1)
Sé, no has parado de llorar
Has dejado de brillar
No era lo que pensaba
Ser un sueño nada más
(Más?) me inspiras a que yo
Reviva mi ilusión
Juntarnos cuerpo a cuerpo alma somos dos

(PRE-CORO)
Guitar 2
   A5                 B5
Amar, hasta no poder más
            A5
Deseo entregar
                    B5
Que en mi puedas confiar lo que te pone triste

   A5                   B5
Estoy, desnudo frente a ti
               A5
Desnúdate ante mi
                 B5
Sin miedos sin temores
Solo amor

(CORO)
Guitar2 A8
Siente, el fuego de mis labios quema
Siente, que mis besos aman envenenan
Siente, sin ti mi vida vale nada
Sienteeee?


Guitar 1 (Riff3)
E||---12-11----9-------|
B||---------12---------|
G||--------------------|

E||---12-11-14-16-16---|
B||--------------------|
G||--------------------|
Guitar 2 A8

(2ª ESTROFA)
Guitar 3(Riff1)
Sé, has dejado de llorar
Tu voz puedo escuchar
Tu alma en libertad
Era lo que quisiste

Adiós solo queda recordar
que no puedas olvidar
lo que hubo entre los dos
no tiene un precio

PRE-CORO
Guitar 2
   A5                 B5
Amar, hasta no poder más
            A5
Deseo entregar
                    B5
Que en mi puedas confiar lo que te pone triste

   A5                   B5
Estoy, desnudo frente a ti
               A5
Desnúdate ante mi
                 B5
Sin miedos sin temores
Solo amor

CORO
Guitar2 A8
Siente, el fuego de mis labios quema
Siente, que mis besos aman envenenan
Siente, sin ti mi vida vale nada
Sienteeee?
Solo
(Coro X2)
La segunda repetición del  coro acompañado de
guitarra2 (A8)
guitarra1 (Riff2)


por:roberto tibanquiza
Suggest correction
Creating personal tab
Creating personal tab
You can edit any tab online and save it as your Personal.

You can edit, replace or remove any tab part or add personal notes – all changes will be seen only by you.

Personal tabs can be accessed anytime from any device, even offline.
Learn more »
Give kudos to tab author, rate the tab!
1 2 3 4 5
comments
print report bad tab
guest
Wanna post a correction for this tab? Suggest correction