Oops, an error
Loading. Please wait.

Tired Of Toein The Line Bass Tab

25 views 3 this week
no commentswrite comment
1 2 3 4 5
3 more votes to show rating
add to favorites
launch autoscroll
font size
0
reset
guitar tuner
Autoscroll
slow
fast
+/-
esc
set tempo
stop
Help us to improve Ultimate-Guitar.com Take our survey!
×
Author
Tired Of Toein’ The Line
This the only single by Rocky Burnette (son of Fifties legend Johnny 
Burnette). Released in 79/80 it was a worldwide hit everywhere but here in 
The UK - #58. Tab by bass50611. Very catchy tune. Not exact but this what 
I Would play on stage. Symbols ‘.’ Are pauses dots
Comments at bass254@btinternet.com 
 
Intro:                                 (Play This Bit x2)
G|----3------------------------3-------------------|
D|-5-----2--5-----3---------5-----2--5-----3-------|
A|-------------3-----5------------------3-----5----|
E|----------------------3------------------------3-|

Verse 1:                               (Play This Bit x4)
G|----3------------------------3-------------------|
D|-5-----2--5-----3---------5-----2--5-----3-------|
A|-------------3-----5------------------3-----5----|
E|----------------------3------------------------3-|

Bridge:
G|------------------------------------4--4-4--4--------------4--4-4--4-|
D|---------------------------------------------------------------------|
A|-3--3-3--3---2--2-2--2---3--3-3--3-------------3--3-3--3-------------|
E|---------------------------------------------------------------------|

G|------------------------|
D|-5--------------5--7----|
A|----7--5--7--8--------7-|
E|------------------------|

Verse 2:                               (Play This Bit x4)
G|----3------------------------3-------------------|
D|-5-----2--5-----3---------5-----2--5-----3-------|
A|-------------3-----5------------------3-----5----|
E|----------------------3------------------------3-|

Bridge:
G|------------------------------------4--4-4--4--------------4--4-4--4-|
D|---------------------------------------------------------------------|
A|-3--3-3--3---2--2-2--2---3--3-3--3-------------3--3-3--3-------------|
E|---------------------------------------------------------------------|

G|------------------------|
D|-5--------------5--7----|
A|----7--5--7--8--------7-|
E|------------------------|

Verse 3:                               (Play This Bit x2)
G|----3------------------------3-------------------|
D|-5-----2--5-----3---------5-----2--5-----3-------|
A|-------------3-----5------------------3-----5----|
E|----------------------3------------------------3-|

Interlude:       ‘.’                 ‘.’
G|-5----5--------------5----5-------------5----5---|
D|---5----5---5----------5----5---5---------5----5-|
A|-------------7-5-----------------7-5-------------|
E|----------------7-------------------7------------|


                        (Break)
G|--------------------------|
D|-5------------------------|
A|--7-5----4--5--5--5--5--5-|
E|------7-------------------|

Verse 4:                               (Play This Bit x2)
G|----3------------------------3-------------------|
D|-5-----2--5-----3---------5-----2--5-----3-------|
A|-------------3-----5------------------3-----5----|
E|----------------------3------------------------3-|

Outro:                               (Repeat To Fade/End)
G|----3----------------------------------------------|
D|-5-----2--5-----3---------5--5---2--2--------------|
A|-------------3-----5-------------------3--3---5--5-|
E|----------------------3----------------------------|

Symbols ‘.’ Are Pause Dots

May Grateful Thanks To KRAZIEKHAT For The Chords
Suggest correction
Give kudos to tab author, rate the tab!
1 2 3 4 5
comments
print report bad tab
guest
You may want to rate the tab now too:
select rating
Wanna post a correction for this tab? Suggest correction