Oops, an error
Loading. Please wait.

Dont Dream It Tab

version 1
version 1

Whole song

Interactive

502 views 6 this week
no commentswrite comment
1 2 3 4 5
please rate
add to favorites
launch autoscroll
font size
0
reset
how to read this tab
guitar tuner
Autoscroll
slow
fast
+/-
esc
set tempo
stop
Help us to improve Ultimate-Guitar.com Take our survey!
×
Author
Difficulty
intermediate
-------------------------------------------------------------------------------
                  Don't Dream It - Rocky Horror Picture Show
-------------------------------------------------------------------------------
Tabbed by: ironmanben
E-mail: bentrooper@gmail.com

Tuning: e B G D A E

This tab is essentially the lead guitar parts for Don't Dream It.  The chords follow 
what the piano plays under the lead or when the lead is absent.

C                    Am
Whatever happened to Fay Wray?
     F                     G
That delicate satin-draped frame.
      F            G
As it clung to her thigh
C                Am
How I started to cry
         F                             G
'Cause I wanted to be dressed just the same.


   F       Fm        C
e|-5-------4-------|-3---------------|
B|-8^(10)--7^(9)---|-6^(8)-----------|
G|-----------------|-----------------|
D|-----------------|-----------------|
A|-----------------|-----------------|
E|-----------------|-----------------|

Give yourself over to absolute pleasure


   F       Fm        C
e|-5-------4-------|-3---------------|
B|-8^(10)--7^(9)---|-6^(8)-----------|
G|-----------------|-----------------|
D|-----------------|-----------------|
A|-----------------|-----------------|
E|-----------------|-----------------|

Swim the warm waters of sins of the flesh


   F       Fm        C
e|-5-------4-------|-3---------------|
B|-8^(10)--7^(9)---|-6^(8)-----------|
G|-----------------|-----------------|
D|-----------------|-----------------|
A|-----------------|-----------------|
E|-----------------|-----------------|

Erotic nightmares beyond any measure


   F       Fm        C
e|-5-------4-------|-3-------|
B|-8^(10)--7^(9)---|-6^(8)---|
G|-----------------|---------|
D|-----------------|---------|
A|-----------------|---------|
E|-----------------|---------|
And sensual daydreams to treasure

  G7
e|-----------------|-----------------|
B|-----------------|-----------------|
G|-----------------|-----------------|
D|----/5-3---2---0-|----/5-3---2---0-|
A|-----------------|-----------------|
E|-3-3-------------|-3-3-------------|
  forever


  G7
e|-----------------|-----------------|
B|-----------------|-----------------|
G|----/4-----------|-----------------|
D|----/5-3---2---0-|-----5---5-------|
A|-----------------|-----------------|
E|-3-3-------------|-3-3---3---3-----|
Can't you just see it--oh oh ho


C     Am       F  G
Don't dream it.   Be it.
C     Am       F  G
Don't dream it.   Be it.


Over C, Am, F, G progression:
 We've got to get out of this trap
Before this decadence saps our wills.
I've got to be strong and try to hang on.
Or else my mind may well snap
Und my life will be lived for the...

   C        Am       F       G
e|-----------------|-----------------|
B|-15^(17)---------|---------15------|
G|-----------------|-----------------|
D|-----------------|-----------------|
A|-----------------|-----------------|
E|-----------------|-----------------|
   Thrill!

   F                 Fm                C                 G
e|-8---------------|-8---------------|-8---------------|-3---------------|
B|-10--------------|-9---------------|-8---------------|-3---------------|
G|-10--------------|-10--------------|-9---------------|-4---------------|
D|-10--------------|-10--------------|-10--------------|-5---------------|
A|-----------------|-----------------|-10--------------|-5---------------|
E|-----------------|-----------------|-----------------|-----------------|
  It's beyond me.    Help me, Mommy.   God bless Lili St. Cyr.


************************************

| /   slide up
| \   slide down
| h   hammer-on
| p   pull-off
| ~   vibrato
| +   harmonic
| x   Mute note
| b   Bend
| pb  Pre-bend
| br  Bend release
| pbr Pre-bend release
| brb Bend release bend

************************************
Suggest correction
Give kudos to tab author, rate the tab!
1 2 3 4 5
comments
print report bad tab
guest
You may want to rate the tab now too:
select rating
Wanna post a correction for this tab? Suggest correction