Oops, an error
Loading. Please wait.

Gonna Fly Now Tab

version 1
version 1

Whole song

50,864 views 93 this week
1 commentread comment
1 2 3 4 5
excellent!
x 12
add to favorites
launch autoscroll
font size
0
reset
how to read this tab
guitar tuner
Tab Pro tools
  • play this tab
  • loop segment
  • change instrument
  • show fretboard
  • metronome
×
Best way to learn
"Gonna Fly Now"
Autoscroll
slow
fast
+/-
esc
set tempo
stop
Title: Gonna Fly Now 
Performed By: The Rocky Orchestra
Album: The Rocky Story
Tabbed By: AVIDUS on 07/03/04

e|----------------------------------------|
b|----------------------------------------|
g|----------------------------------------|
d|------------------------14--------------|
a|-15-15--15-15-15--15-15-----15-15-15----|
e|----------------------------------------|

e|----------------------------------------|
b|----------------------------------------|
g|----------------------------------------|
d|-14-14--14-14-14--14-14-17--14-14-14----|
a|-15-15--15-15-15--15-15-15--15-15-15----|
e|----------------------------------------|


e|----------------------------------15-13-12--15-13-12-13-15-13-12-|
b|-----------13--13-13---------------------------------------------|
g|-12--12-12-----------12--12-12-----------------------------------|
d|-------------------------------14--------------------------------|
a|-----------------------------------------------------------------|
e|-----------------------------------------------------------------|
(not sure if this in the movie version)


Rocky' training run:

e|-------------------0---------0-0--0-0-0--0-0-3--0-0-0---|
b|-1-1--1-1-1--1-1-1----1-1-1--1-1--1-1-1--1-1-1--1-1-1---|
g|--------------------------------------------------------|
d|--------------------------------------------------------|
a|--------------------------------------------------------|
e|--------------------------------------------------------|

e|-0--0-0-0--0-0--0-0---0-0--0-0-0-0--0---|
b|-0--0-0-0--0-0--0-0---0-0--0-0-0-0--0---|
g|----------------------------------------|
d|----------------------------------------|
a|----------------------------------------|
e|--------------------1---0---------------|


Melody:
e|-0--3---5------5--7---0------|
b|-----------------------------|
g|-----------------------------|
d|-----------------------------|
a|-----------------------------|
e|-----------------------------|


Melody: (continued)
e|-------------0-------------------------------------|
b|-3-1-3---1-3-------1-1-0--0------------1--0--------|
g|----------------------------2--2-0-----------------|
d|---------------------------------------------------|
a|---------------------------------------------------|
e|---------------------------------------------------|

Variation:
e|-------------0-----8-8-7--7-5--5-3-----8--7--------|
b|-3-1-3---1-3---------------------------------------|
g|---------------------------------------------------|
d|---------------------------------------------------|
a|---------------------------------------------------|
e|---------------------------------------------------|


Guitar solo: (The one from the soundtrack, not in the film)
e|------------------------------------------------------------|
b|-15-15-13-15-15-15~--\--------13-15(17)-15(17)~---(17)15p13-|
g|-------------------------9/14-------------------------------|
d|------------------------------------------------------------|
a|------------------------------------------------------------|
e|------------------------------------------------------------|

e|------------------------------------------------|
b|-15-15-13-13------15(18)-15~--------------------|
g|--------------------------------12/14-14-12-----|
d|------------------------------------------------|
a|------------------------------------------------|
e|------------------------------------------------|

e|---------------------------------------------------------------|
b|-----------12-13--15-13-15(17)-----15(17)-15(17)-(17)15p13--13-|
g|---12-12-14-----------------------------------------------14---|
d|-14------------------------------------------------------------|
a|---------------------------------------------------------------|
e|---------------------------------------------------------------|

e|-------------------------------------------------------------|
b|-13h15p13--13--------13-13h15p13--13-------13-13h15p13--13---|
g|---------14------9/14-----------14-----9/14-----------14-----|
d|-------------------------------------------------------------|
a|-------------------------------------------------------------|
e|-------------------------------------------------------------|

e|------------|
b|-13h15p13---|
g|---------14-|
d|------------|
a|----x4------|
e|------------|

e|------12--15-12-15(17)~---15-12-15-12-15-15(17)(17)|
b|13-------------------------------------------------|
g|---------------------------------------------------|
d|---------------------------------------------------|
a|---------------------------------------------------|
e|---------------------------------------------------|

e|-15-15-12h15p12-------------------------------------------------|
b|---------------15-13-15(17)-15(17)-(17)15p13-15p13--13\---------|
g|--------------------------------------------------14------------|
d|----------------------------------------------------------------|
a|----------------------------------------------------------------|
e|----------------------------------------------------------------|

That's it.  It's a fun song to play and a great movie.

-Avidus
comments
print report bad tab
1 comment total.
+2 reply
MASTER JiMMY wrote on January 9 2008, 04:33 am

this tab is perfect except for the one part where in the continued melody u end on C B or 1-0 on the b string when it
should be on the highest string, but i could be wrong, still sounds good

I want to post or [tab]
guest
You may want to rate the tab now too:
select rating
Please do not post tabs as comments. Select "correction" instead!