Oops, an error
Loading. Please wait.

Lucky Clover Coin tab

2,088 views 1 this week
3 commentsread comments
1 2 3 4 5
2 more votes to show rating
add to favorites
×
Save as Personal and add changes to this tab that will be seen only by you. Learn more ›
×
You can save this tab as Personal to edit and correct it or add notes. All changes will be seen only by you. Learn more »
launch autoscroll
font size
0
reset
how to read this tab
guitar tuner
edit
Autoscroll
slow
fast
+/-
esc
set tempo
stop
Rocky Votolato - True Devotion
Lucky Clover Coin
Tuning: Half Step Down
Jake K.
mubbly24@gmail.com


Such a hauntingly beautiful song. Enjoy.


  Intro (Same in the verse)
e|---------X---------X--------X----------X----|
B|--------10--------10--------0----------X----|
G|---------0---------0--------0----------9----|
D|------9--9---------0--------0---------10----|
A|---10---10------9--9-----7--7-----10--10----|
E|---------X---10---10---0----0---8------8----|


  Verse
e|-------X------------------X-------------------------------X---------------------------------X-|
B|------10-----------------10-------------------------------0---------------------------------X-|
G|-------0------------------0-------------------------------0---------------------------------9-|
D|----9--9------------------0-------------------------------0--------------------------------10-|
A|-10---10---------------9--9----------------------------7--7----------------------------10--10-|
E|-------X------------10---10--------------------------0----0--------------------------8------8-|
          You found a three leaf clover coin, you said it was good luck and I think it will be


e|---------X---------------------------X-------------------------X----------------------X--|
B|--------10--------------------------10-------------------------0----------------------X--|
G|---------0---------------------------0-------------------------0----------------------9--|
D|------9--9---------------------------0-------------------------0---------------------10--|
A|---10---10------------------------9--9----------------------7--7-----------------10--10--|
E|---------X---------------------10---10--------------------0----0---------------8------8--|
            Your eyes are broken glass the shattered light, shines on everything you see


  Chorus
e|------------0-------------------------2-----------0---------------------------0----------|
B|------------0-------------------------3-----------0---------------------------1----------|
G|------------0-------------------------2-----------0---------------------------0----------|
D|------------2-------------------------0-----------2---------------------------2----------|
A|------------2-------------------------0-----------2---------------------------3----------|
E|------------0-------------------------X-----------0---------------------------3----------|
    There's a world I want to leave behind, where a sunset in a constant bloody winter


e|---2-------------0----------0---------------------------0--------------------------------|
B|---3-------------1----------0---------------------------1--------------------------------|
G|---2-------------2----------0---------------------------0--------------------------------|
D|---0-------------2----------2---------------------------2--------------------------------|
A|---0-------------0----------2---------------------------3--------------------------------|
E|---X-------------X----------0---------------------------3--------------------------------|
    Gives the only light, and with it I hoped I would disappear


e|---------2---------------0---------0--------------------------------0--------------------|
B|---------3---------------1---------0--------------------------------1--------------------|
G|---------2---------------2---------0--------------------------------0--------------------|
D|---------0---------------2---------2--------------------------------2--------------------|
A|---------0---------------0---------2--------------------------------3--------------------|
E|---------X---------------X---------0--------------------------------3--------------------|
    You're keeping me alive till the sunlight shows spring roses and water


e|--------------2----------0----------0-----------------------------0--2-------------------|
B|--------------3----------1----------0-----------------------------1--3-------------------|
G|--------------2----------2----------0-----------------------------0--2-------------------|
D|--------------0----------2----------2-----------------------------2--0-------------------|
A|--------------0----------0----------2-----------------------------3--0-------------------|
E|--------------X----------X----------0-----------------------------3--X-------------------|
    And for the rest of my life, I'll put your broken pieces back together


  2nd Verse
e|---------X---------------------------X-------------X--------------------------X----------|
B|--------10--------------------------10-------------0--------------------------X----------|
G|---------0---------------------------0-------------0--------------------------9----------|
D|------9--9---------------------------0-------------0-------------------------10----------|
A|---10---10------------------------9--9----------7--7---------------------10--10----------|
E|---------X---------------------10---10--------0----0-------------------8------8----------|
            I want to spend more time with you, because you make me happy


e|---------X-------------------------------X----------------X----------------------X-------|
B|--------10------------------------------10----------------0----------------------X-------|
G|---------0-------------------------------0----------------0----------------------9-------|
D|------9--9-------------------------------0----------------0---------------------10-------|
A|---10---10----------------------------9--9-------------7--7-----------------10--10-------|
E|---------X-------------------------10---10-----------0----0---------------8------8-------|
            It's something I've done so little of, but you showed me that I can be


  Chorus
e|------------0-------------------------2-----------0---------------------------0----------|
B|------------0-------------------------3-----------0---------------------------1----------|
G|------------0-------------------------2-----------0---------------------------0----------|
D|------------2-------------------------0-----------2---------------------------2----------|
A|------------2-------------------------0-----------2---------------------------3----------|
E|------------0-------------------------X-----------0---------------------------3----------|
    There's a world I want to leave behind, where a sunset in a constant bloody winter


e|---2-------------0----------0---------------------------0--------------------------------|
B|---3-------------1----------0---------------------------1--------------------------------|
G|---2-------------2----------0---------------------------0--------------------------------|
D|---0-------------2----------2---------------------------2--------------------------------|
A|---0-------------0----------2---------------------------3--------------------------------|
E|---X-------------X----------0---------------------------3--------------------------------|
    Gives the only light, and with it I hoped I would disappear


e|---------2---------------0---------0--------------------------------0--------------------|
B|---------3---------------1---------0--------------------------------1--------------------|
G|---------2---------------2---------0--------------------------------0--------------------|
D|---------0---------------2---------2--------------------------------2--------------------|
A|---------0---------------0---------2--------------------------------3--------------------|
E|---------X---------------X---------0--------------------------------3--------------------|
    You're keeping me alive till the sunlight shows spring roses and water


e|--------------2----------0----------0-----------------------------0----------------------|
B|--------------3----------1----------0-----------------------------1----------------------|
G|--------------2----------2----------0-----------------------------0----------------------|
D|--------------0----------2----------2-----------------------------2----------------------|
A|--------------0----------0----------2-----------------------------3----------------------|
E|--------------X----------X----------0-----------------------------3----------------------|
    And for the rest of my life, I'll put your broken pieces back together     **PLAY X 2**


e|--------------2----------0--------0-----------------------------0------------------------|
B|--------------3----------1--------0-----------------------------1------------------------|
G|--------------2----------2--------0-----------------------------0------------------------|
D|--------------0----------2--------2-----------------------------2------------------------|
A|--------------0----------0--------2-----------------------------3------------------------|
E|--------------X----------X--------0-----------------------------3------------------------|
        For the rest of my life, I only want to walk the way you showed me  **END. Encore!!

            
            
Suggest correction
Creating personal tab
Creating personal tab
You can edit any tab online and save it as your Personal.

You can edit, replace or remove any tab part or add personal notes – all changes will be seen only by you.

Personal tabs can be accessed anytime from any device, even offline.
Learn more »
Give kudos to tab author, rate the tab!
1 2 3 4 5
comments
print report bad tab
3 comments total.
+1 reply
piefayth 10 Aug 11, 2010 09:43 AM

I think all lines of the chorus should look something like this

Chorus
e|---------------0---------000-------2-0h2---------0000------------------------------00----0-------------|
B|---------------0---------000-------3-------------0000------------------------------11----1-------------|
G|---------------0---------000-------2-------------0000------------------------------00----0-------------|
D|------------2--2---------222----2--0-------------2222--2---------------------------22222-2------2------|
A|------------2--2---------222----2--0-------------2222--2---------------------------33333-3-0h3---------|
E|------------0--0---------000----0--X-------------0000--0---------------------------33333-3-------------|
There's a world I want to leave behind, where a sunset in a constant bloody winter

0 reply
piefayth 10 Aug 11, 2010 10:00 AM

Sorry, that didn't match up with the lyrics properly. Edited slightly, too. There are also slight variations in the hammer ons in each line (such as adding a note or leaving one out) that aren't accounted for here.

Chorus
e|---------------0------------------000-------2-0h2----0-0--------0-----------------0-0---0---------------|
B|---------------0------------------000-------3--------0-0--------0-----------------1-1---1---------------|
G|---------------0------------------000-------2--------0-0--------0-----------------0-0---0---------------|
D|------------2--2------------------222-2-----0--------2-2-2-2----2-----------------2-2-2-2-2------2------|
A|------------2--2------------------222-2-----0--------2-2-2-2----2-----------------3-3-3-3-3--0h3--------|
E|------------0--0------------------000-0-----X--------0-0-0-0----0-----------------3-3-3-3-3-------------|
There's a world I want to leave behind where a sunset in a constant bloody winter

0 reply
jmk87 167 Aug 12, 2010 09:19 AM

Sorry, my tab lined up better than that. I chose not to add in the strum pattern or hammer-ons and whatnot.

guest
You may want to rate the tab now too:
select rating
Wanna post a correction for this tab? Suggest correction