Oops, an error
Loading. Please wait.

She Was Only In It For The Rain tab

version 2
version 2

Whole song

6,218 views 3 this week
2 commentsread comments
1 2 3 4 5
x 5
add to favorites
×
Save as Personal and add changes to this tab that will be seen only by you. Learn more ›
×
You can save this tab as Personal to edit and correct it or add notes. All changes will be seen only by you. Learn more »
launch autoscroll
font size
0
reset
how to read this tab
guitar tuner
edit
Autoscroll
slow
fast
+/-
esc
set tempo
stop
Difficulty
Go Buy Makers! It's so good!


She Was Only In It For The Rain by Rocky Votolato

Tuning - Eb Ab Db Gb Bb Eb - (half step down)

                 Bmin A  D  G
Chords Used- Eb  2    0  2  3
             Bb  3    2  3  3
             Gb  4    2  2  0
             Db  4    2  0  0
             Ab  2    0  0  2
             Eb  x    x  x  3

The Song!


Into/Verse

   "She swore..."           "...only in it for the rain...."
          Bmin                       A                  Bmin
Eb -------2-2------------      ------0------------------2-2----------|
Bb -------3-3------------      ------2------------------3-3----------|
Gb -------4-4------------ X4   ------2------------------4-4----------|
Dg -------4-4-------0----      ------2------------------4-4------0---|
Ab --2-2--2-2---------0--      ------0-------------2-2--2-2--------0-|
Eb ------------2-2-------      ------x----------------------2-2------|


Pre Chorus

 D                                  G                           D
"Here's the first of many songs you wanted me to write just for you I hope

           A
to god you like it..."


Chorus
         Bmin            G
"It's as pretty as it is cruel..."

2nd Guitar in background during verse.

  PM________           PM________
Eb------------       Eb------------|
Bb--00000000--  and  Bb--00000000--|
Gb--44424442--       Gb--22242224--|
Db------------       Db------------|
Ab------------       Ab------------|
Eb------------       Eb------------|


k so thats basically it I think.

Questions? comments? hit me up on aim - Nathanularitis.

            
            
Suggest correction
Creating personal tab
Creating personal tab
You can edit any tab online and save it as your Personal.

You can edit, replace or remove any tab part or add personal notes – all changes will be seen only by you.

Personal tabs can be accessed anytime from any device, even offline.
Learn more »
comments
print report bad tab
2 comments total.
0 reply
KSUGuy 40 Sep 21, 2007 12:35 AM

The second guitar does some other stuff higher up on the fretboard, but I'm a bit tired to figure it out right now, maybe tomorrow.

0 reply
jmk87 167 Jul 09, 2010 09:32 AM

Great job! 5 *'s. This way may be easier - it is for me, at least..

Eb -------2-2------------
Bb -------3-3------------
Gb -------4-4------------
Dg -------4-4------------
Ab --2-2--2-2------5-0---
Eb ------------2-2-------


You can keep your hand in the Bm position and just hit the "5" with your pinky.

guest
Wanna post a correction for this tab? Suggest correction