Oops, an error
Loading. Please wait.

Silver Trees tab

1,016 views 1 this week
no commentswrite comment
1 2 3 4 5
2 more votes to show rating
add to favorites
×
Save as Personal and add changes to this tab that will be seen only by you. Learn more ›
×
You can save this tab as Personal to edit and correct it or add notes. All changes will be seen only by you. Learn more »
launch autoscroll
font size
0
reset
how to read this tab
guitar tuner
edit
Autoscroll
slow
fast
+/-
esc
set tempo
stop
Jacob K.
mubbly24@gmail.com
Capo 3rd fret

Fingerpick along.. I'll show you the chords with hammer-ons to help you out.

Verse
e|----X--X--------1------------------X--------------X----------------|
B|----1--0--------1------------------3--------------1----------------|
G|--0h2--0-------0h2-----------------0--------------0----------------|
D|----2--0--------3------------------0--------------2----------------|
A|--0-0--X--------3-----------------0h2-------------3----------------|
E|----X--3--------1------------------3--------------X----------------|
       I hear you call me - branches break in the wind   

e|----X------------X----------1---------------------X-------------|
B|----1------------0----------1---------------------3-------------|
G|--0h2------------0---------0h2--------------------0-------------|
D|----2------------0----------3---------------------0-------------|
A|--0-0------------X----------3--------------------0h2------------|
E|----X------------3----------1---------------------3-------------|
       through the leaves and concrete you're gonna grow 

e|----------X--------------X-----------X-----X---------------|
B|----------1--------------1-----------1-----1---------------|
G|----------0--------------0-----------2-----2---------------|
D|----------2--------------0-----------2-----2---------------|
A|----------3--------------2-----------0-----X---------------|
E|----------X--------------X-----------X-----0---------------|
       into something that death can't steal

e|--------1-----------X------X-------X-------X------X--------|
B|--------1-----------3------1-------1-------1------1--------|
G|--------2-----------0------0-------0-------2------2--------|
D|--------3-----------0------2-------0-------2------2--------|
A|--------3----------0h2-----3-------2-------0------X--------|
E|--------1-----------3------X-------X-------X------0--------|
        a garden that gives, sprouts come up glowing

e|------2---------X----------------1------X--------1------------X----|
B|------1---------3----------------1------1--------1------------3----|
G|------2---------0-------------0--2------2--------2------------0----|
D|------0---------0---2---3--------3------2--------3------------0----|
A|------0---------X----------------3------0--------3-----------0h2---|
E|------X---------3----------------1------X--------1------------3----|
        fruits of jade and golden  silver trees to mark the legacy

e|------------X---X----X----X-----1-------X--------X---------|
B|------------1---3----3>5--3-----1-------3--------1---------|
G|------------0---0----0----0----0h2------0--------0---------|
D|------------2---0----0----0-----3-------0--------2---------|
A|------------3---2----0----X-----3------0h2-------3---------|
E|------------X---X----X----3-----1-------3--------X---------|
        of a life that finally   learned what this means

Play x2 With Harmonica
e|----X--X-------1-----------X--------------------X----------|
B|----1--0-------1-----------3--------------------1----------|
G|--0h2--0------0h2----------0--------------------0----------|
D|----2--0-------3-----------0--------------------2----------|
A|--0-0--X-------3----------0h2-------------------3----------|
E|----X--3-------1-----------3--------------------X----------|

e|-------X----X--------1-----------------X----------X----------|
B|-------1----0--------1-----------------3----------1----------|
G|-----0h2----0-------0h2----------------0----------0----------|
D|-------2----0--------3-----------------0----------2----------|
A|-----0-0----X--------3----------------0h2---------3----------|
E|-------X----3--------1-----------------3----------X----------|
         the invisible choir sings you a voiceless lesson

e|-----X-----------X--------1-----------------X--------------|
B|-----1-----------0--------1-----------------3--------------|
G|---0h2-----------0-------0h2----------------0--------------|
D|-----2-----------0--------3-----------------0--------------|
A|---0-0-----------X--------3----------------0h2-------------|
E|-----X-----------3--------1-----------------3--------------|
         so you'll always remember what grew out

e|---------------X---------X-----------X-----X---------------|
B|---------------1---------1-----------1-----1---------------|
G|---------------0---------0-----------2-----2---------------|
D|---------------2---------0-----------2-----2---------------|
A|---------------3---------2-----------0-----X---------------|
E|---------------X---------X-----------X-----0---------------|
         of decisions that death can't steal
         
e|--------1--------------------X----X-------X----------------X------X--------|
B|--------1--------------------3----1-------1----------------1------1--------|
G|--------2--------------------0----0-------0----------------2------2--------|
D|--------3--------------------0----2-------0----------------2------2--------|
A|--------3-------------------0h2---3-------2----------------0------X--------|
E|--------1--------------------3----X-------X----------------X------0--------|
         lives that learned to give when it seemed there was nothing

e|-----------2----------------X--------------1---------X---------------1--------------X----|
B|-----------1----------------3--------------1---------1---------------1--------------3----|
G|-----------2----------------0-----------0--2---------2---------------2--------------0----|
D|-----------0----------------0-----2--3-----3---------2---------------3--------------0----|
A|-----------0----------------X--------------3---------0---------------3-------------0h2---|
E|-----------X----------------3--------------1---------X---------------1--------------3----|
         oh, how much more it meant to those around we go - there's a rhythm soft and slow

e|--------------X--X---X----X---1------------X------X---------|
B|--------------1--3---3>5--3---1------------3------1---------|
G|--------------0--0---0----0--0h2-----------0------0---------|
D|--------------2--0---0----0---3------------0------2---------|
A|--------------3--2---0----X---3-----------0h2-----3---------|
E|--------------X--X---X----3---1------------3------X---------|
         you'll always hear the choir if you listen close

Play With Harmonica
e|----X--X-------1-----------X--------------------X----------|
B|----1--0-------1-----------3--------------------1----------|
G|--0h2--0------0h2----------0--------------------0----------|
D|----2--0-------3-----------0--------------------2----------|
A|--0-0--X-------3----------0h2-------------------3----------|
E|----X--3-------1-----------3--------------------X----------|

e|----X--X-------1-----------X----X--X---X----X---1------------X------X------|
B|----1--0-------1-----------3----1--3---3>5--3---1------------3------1------|
G|--0h2--0------0h2----------0----0--0---0----0--0h2-----------0------0------|
D|----2--0-------3-----------0----2--0---0----0---3------------0------2------|
A|--0-0--X-------3----------0h2---3--2---0----X---3-----------0h2-----3------|
E|----X--3-------1-----------3----X--X---X----3---1------------3------X------|

Pluck the C chord till the end.
Suggest correction
Creating personal tab
Creating personal tab
You can edit any tab online and save it as your Personal.

You can edit, replace or remove any tab part or add personal notes – all changes will be seen only by you.

Personal tabs can be accessed anytime from any device, even offline.
Learn more »
Give kudos to tab author, rate the tab!
1 2 3 4 5
comments
print report bad tab
guest
You may want to rate the tab now too:
select rating
Wanna post a correction for this tab? Suggest correction