Oops, an error
Loading. Please wait.

Streetlights tab

9,998 views 1 this week
1 commentread comment
1 2 3 4 5
x 8
add to favorites
×
Save as Personal and add changes to this tab that will be seen only by you. Learn more ›
×
You can save this tab as Personal to edit and correct it or add notes. All changes will be seen only by you. Learn more »
launch autoscroll
font size
0
reset
how to read this tab
guitar tuner
edit
Autoscroll
slow
fast
+/-
esc
set tempo
stop
Author
Difficulty
Artist - Rocky Votolato
Song - Streetlights
Album - Makers

Tuning - Standard

CAPOED AT 2ND FRET


C                         G
We can go and walk in the darkness
    F                    C
get relief at each streetlight
                               G
I don't know how much it would cost us
         F                                Am
probably more than I've spent in my whole life
         G       F                   C              F
on these silly ideas that waste more time than I had to
                 Am      G     F
lose when I woke up this morning
            C               Am           F               G#       C
seems like I've got so much more to lose now than I ever had before

G     C
...Before


     Am     G     F
|-----------------1-----|
|-----1-----3-----1-----|
|------2-----0----2-----|
|----2------------3-----|
|---0------2------3-----|
|---------3-------1-----|
"...Life on these..." / "... up this morning..."


   C(x2)  Am(x2)  F           G#           C(x2) G(x2)
|------------------1----1---1/4--4----4----0-----3------|
|---1------1--------1----1--1/4---4----4---1-----3------|
|----0------2--------2----2-2/5----5----5--0-----0------|
|-----2------2----3----3----3/6-6----6-----2-----0------|
|--3------0--------------------------------3-----2------|
|------------------------------------------------3------|
"I've got so much....before"


|--------------------------------|
|--------------1p0--0h1------1---|
|--------------------------0-----|
|-------------2---------0h2-2----|
|------------3-----3---3---------|
|--------------------------------|
"...Before"


C             G             F           C
Little beanie-bean with the calculator keys
              G              F                  Am
can he add it all up, make it all make sense to me
     G       F                 C
I've got no idea how much more time
         F                   Am G    F
I've got left if I can't get my mind right
         C              Am            F           G#      C
the simplest little melody has got me all tangled up in knots
G              C
...I'm tangled up

Chords in this verse are strummed once until the Am at smart... where the Am and G are 
loudly twice:

C                         G
We can go and walk in the morning
              F                       C
We don't need streetlights just a new start
                 G                      F                   Am
Not paralyzed by appearances with big ideas and just way to smart
   G      F            C                      F
to walk around on the surface when there's an ocean
       Am         G          F
just beneath it's blue-green smile
            C                       Am              F              G#   C
And all the while, nothing stopping me from jumping in and sinking fast
G                   C
...I'll sing you to sleep first


I still don't really know how to do the solo but here's a little idea of what I do for a start.
                                 PAUSE         |slow slide|
|-------------3-------------------------------------------------------|
|-1-3-5-3\1/3-3---6-5-3-1/3-3-3-3-----8-6-5h6p5--3-/-1-/-0------------|
|-0-0-0-0---0--0--0----------------------------------------2----------|
|--0-0-0-----------0-0-0---0-0-0-------0-0-----0----------------------|
|---------------------------------------------------------------------|
|---------------------------------------------------------------------|

Then you play the same part as the verse ending...
F / G#    C   G   C    And end with last C strummed once after the little C 
riff.
Suggest correction
Creating personal tab
Creating personal tab
You can edit any tab online and save it as your Personal.

You can edit, replace or remove any tab part or add personal notes – all changes will be seen only by you.

Personal tabs can be accessed anytime from any device, even offline.
Learn more »
comments
print report bad tab
1 comment total.
0 reply
MakeUrselfSick 51 Apr 23, 2008 10:28 AM

Great tab!
But i think the "...Before" part is played like this:
|--------------------------------|
|--------------1p0--0h1------1---|
|--------------------------0-----|
|-------------2---------0h2-2----|
|------------3-----2---3---------|
|-----------------3--------------|

guest
You may want to rate the tab now too:
select rating
Wanna post a correction for this tab? Suggest correction