Oops, an error
Loading. Please wait.

I Dont Want To Talk About It Tab

version 1
version 1

Whole song

Interactive

37,250 views 117 this week
3 commentsread comments
1 2 3 4 5
x 5
add to favorites
launch autoscroll
font size
0
reset
how to read this tab
guitar tuner
Autoscroll
slow
fast
+/-
esc
set tempo
stop
Help us to improve Ultimate-Guitar.com Take our survey!
×
Author
Difficulty
novice
"Easy picking pattern" version 

for sure not 100% accurate - especially outro could be improved

Capo the third or fourth fret / standard tuning


[Intro/Verse/Chorus/Bridge]

e|----------0-------|--3-----3-----3-|--3-------3-----|--2-----2-----2-|--2-------2-----| 5
B|------------3-----|----1-----1-----|----1-------1---|----1-----1-----|----1-------1---|
G|--------------4---|------0-----0---|------0-------0-|------2-----2---|------2-------2-|
D|----------------5-|----------------|2---------------|0---------------|0---------------|
A|------------------|0---------------|--------0-------|----------------|--------0-------|
E|------------------|----------------|----------------|----------------|----------------|

e|----3-----3-----3-|--3-------3-----|--3-----3-----3-|--3-------3-----| 9
B|------0-----0-----|----0-------0---|----0-----0-----|----0-------0---|
G|--------0-----0---|------0-------0-|------0-----0---|------0-------0-|
D|------------------|0---------------|----------------|0---------------|
A|------------------|--------2-------|----------------|--------2-------|
E|--3---------------|----------------|3---------------|----------------|
                                                               I can

e|----3-----3-----3-|--3-------3-----|--2-----2-----2-|--2-------2-----| 13
B|------1-----1-----|----1-------1---|----1-----1-----|----1-------1---|
G|--------0-----0---|------0-------0-|------2-----2---|------2-------2-|
D|------------------|2---------------|0---------------|0---------------|
A|--0---------------|--------0-------|----------------|--------0-------|
E|------------------|----------------|----------------|----------------|
   tell by your eyes    that you've probably         been crying 

e|----3-----3-----3-|--3-------3-----|--3-----3-----3-|--3-------3-----| 17
B|------0-----0-----|----0-------0---|----0-----0-----|----0-------0---|
G|--------0-----0---|------0-------0-|------0-----0---|------0-------0-|
D|------------------|0---------------|----------------|0---------------|
A|------------------|--------2-------|----------------|--------2-------|
E|--3---------------|----------------|3---------------|----------------|
  forever,                                                   and the

e|----3-----3-----3-|--3-------3-----|--2-----2-----2-|--2-------2-----| 21
B|------1-----1-----|----1-------1---|----1-----1-----|----1-------1---|
G|--------0-----0---|------0-------0-|------2-----2---|------2-------2-|
D|------------------|2---------------|0---------------|0---------------|
A|--0---------------|--------0-------|----------------|--------0-------|
E|------------------|----------------|----------------|----------------|
   stars     in the sky  don't mean nothing to you, they're a 

e|----3-----3-----3-|--3-------3-----|--3-----3-----3-|--3-------3-----| 25
B|------0-----0-----|----0-------0---|----0-----0-----|----0-------0---|
G|--------0-----0---|------0-------0-|------0-----0---|------0-------0-|
D|------------------|0---------------|----------------|0---------------|
A|------------------|--------2-------|----------------|--------2-------|
E|--3---------------|----------------|3---------------|----------------|
   mirror.

e|----0-----0-----0-|--0-------0-----|--2-----2-----2-|--2-------2-----| 29
B|------1-----1-----|----1-------1---|----1-----1-----|----1-------1---|
G|--------0-----0---|------0-------0-|------2-----2---|------2-------2-|
D|------------------|2---------------|0---------------|0---------------|
A|--3---------------|----------------|----------------|--------0-------|
E|------------------|--------3-------|----------------|----------------|
            I don't wanna                   talk about it

e|----3-----3-----3-|--2-----2-----2-|--0-----0-----0-|--0-------0-----| 33
B|------0-----0-----|----3-----3-----|----0-----0-----|----0-------0---|
G|--------0-----0---|------4-----4---|------0-----0---|------0-------0-|
D|--0---------------|----------------|----------------|2---------------|
A|------------------|2---------------|----------------|--------2-------|
E|------------------|----------------|0---------------|----------------|
  how you          broke my        heart.

e|----0-----0-----0-|--0-----0-----0-|--2-----2-----2-|--2-----2-----2-| 37
B|------1-----1-----|----1-----1-----|----1-----1-----|----1-----1-----|
G|--------0-----0---|------0-----0---|------2-----2---|------2-----2---|
D|------------------|----------------|0---------------|0---------------|
A|--3---------------|3---------------|----------------|----------------|
E|------------------|----------------|----------------|----------------|
             If I stay here just a little bit longer

e|----0-----0-----0-|--0-----0-----0-|2---------------|----------------| 41
B|------1-----1-----|----1-----1-----|1---------------|----------------|
G|--------0-----0---|------0-----0---|2---------------|----------------|
D|------------------|----------------|0---------------|----------------|
A|--3---------------|3---------------|----------------|----------------|
E|------------------|----------------|----------------|----------------|
         if I stay here, won't you listen

e|----3-----3-----3-|--3-----3-----3-|--0-----0-----0-|--0-----0-----0-| 45
B|------1-----1-----|----1-----1-----|----1-----1-----|----1-----1-----|
G|--------0-----0---|------0-----0---|------0-----0---|------0-----0---|
D|------------------|----------------|0---------------|0---------------|
A|--0---------------|0---------------|----------------|----------------|
E|------------------|----------------|----------------|----------------|
           to my heart,                            whoa,         my 

e|----3-----3-----3-|--3-------3-----|--3-----3-----3-|--3-------3-----| 49
B|------0-----0-----|----0-------0---|----0-----0-----|----0-------0---|
G|--------0-----0---|------0-------0-|------0-----0---|------0-------0-|
D|------------------|0---------------|----------------|0---------------|
A|------------------|--------2-------|----------------|--------2-------|
E|--3---------------|----------------|3---------------|----------------|
   heart                                                      If i

e|----3-----3-----3-|--3-------3-----|--2-----2-----2-|--2-----2-----2-| 53
B|------1-----1-----|----1-------1---|----1-----1-----|----1-----1-----|
G|--------0-----0---|------0-------0-|------2-----2---|------2-----2---|
D|------------------|2---------------|0---------------|0---------------|
A|--0---------------|--------0-------|----------------|----------------|
E|------------------|----------------|----------------|----------------|
   stand all alone,       will the shadow hide the color     of my

e|----3-----3-----3-|--3-----3-----3-|--3-----3-----3-|--3-----3-----3-| 57
B|------0-----0-----|----0-----0-----|----0-----0-----|----0-----0-----|
G|--------0-----0---|------0-----0---|------0-----0---|------0-----0---|
D|------------------|----------------|----------------|----------------|
A|------------------|----------------|----------------|----------------|
E|--3---------------|3---------------|3---------------|3---------------|
 heart; blue for the tears,   black for the night's fears (And) the 

e|----3-----3-----3-|--3-------3-----|--2-----2-----2-|--2-------2-----| 61
B|------1-----1-----|----1-------1---|----1-----1-----|----1-------1---|
G|--------0-----0---|------0-------0-|------2-----2---|------2-------2-|
D|------------------|2---------------|0---------------|0---------------|
A|--0---------------|--------0-------|----------------|--------0-------|
E|------------------|----------------|----------------|----------------|
   stars     in the sky  don't mean nothing to you, they're a 

e|----3-----3-----3-|--3-------3-----|--3-----3-----3-|--3-------3-----| 65
B|------0-----0-----|----0-------0---|----0-----0-----|----0-------0---|
G|--------0-----0---|------0-------0-|------0-----0---|------0-------0-|
D|------------------|0---------------|----------------|0---------------|
A|------------------|--------2-------|----------------|--------2-------|
E|--3---------------|----------------|3---------------|----------------|
   mirror.

e|----0-----0-----0-|--0-------0-----|--2-----2-----2-|--2-------2-----| 69
B|------1-----1-----|----1-------1---|----1-----1-----|----1-------1---|
G|--------0-----0---|------0-------0-|------2-----2---|------2-------2-|
D|------------------|2---------------|0---------------|0---------------|
A|--3---------------|----------------|----------------|--------0-------|
E|------------------|--------3-------|----------------|----------------|
            I don't wanna                   talk about it

e|----3-----3-----3-|--2-----2-----2-|--0-----0-----0-|--0-------0-----| 73
B|------0-----0-----|----3-----3-----|----0-----0-----|----0-------0---|
G|--------0-----0---|------4-----4---|------0-----0---|------0-------0-|
D|--0---------------|----------------|----------------|2---------------|
A|------------------|2---------------|----------------|--------2-------|
E|------------------|----------------|0---------------|----------------|
  how you          broke my        heart.

e|----0-----0-----0-|--0-----0-----0-|--2-----2-----2-|--2-----2-----2-| 77
B|------1-----1-----|----1-----1-----|----1-----1-----|----1-----1-----|
G|--------0-----0---|------0-----0---|------2-----2---|------2-----2---|
D|------------------|----------------|0---------------|0---------------|
A|--3---------------|3---------------|----------------|----------------|
E|------------------|----------------|----------------|----------------|
             If I stay here just a little bit longer

e|----0-----0-----0-|--0-----0-----0-|2---------------|----------------| 81
B|------1-----1-----|----1-----1-----|1---------------|----------------|
G|--------0-----0---|------0-----0---|2---------------|----------------|
D|------------------|----------------|0---------------|----------------|
A|--3---------------|3---------------|----------------|----------------|
E|------------------|----------------|----------------|----------------|
         if I stay here, won't you listen

e|----3-----3-----3-|--3-----3-----3-|--0-----0-----0-|--0-----0-----0-| 85
B|------1-----1-----|----1-----1-----|----1-----1-----|----1-----1-----|
G|--------0-----0---|------0-----0---|------0-----0---|------0-----0---|
D|------------------|----------------|0---------------|0---------------|
A|--0---------------|0---------------|----------------|----------------|
E|------------------|----------------|----------------|----------------|
           to my heart,                            whoa,         my 

e|----3-----3-----3-|--3-------3-----|--3-----3-----3-|--3-------3-----| 89
B|------0-----0-----|----0-------0---|----0-----0-----|----0-------0---|
G|--------0-----0---|------0-------0-|------0-----0---|------0-------0-|
D|------------------|0---------------|----------------|0---------------|
A|------------------|--------2-------|----------------|--------2-------|
E|--3---------------|----------------|3---------------|----------------|
   heart

e|----3-----3-----3-|--3-------3-----|--2-----2-----2-|--2-------2-----| 93
B|------1-----1-----|----1-------1---|----1-----1-----|----1-------1---|
G|--------0-----0---|------0-------0-|------2-----2---|------2-------2-|
D|------------------|2---------------|0---------------|0---------------|
A|--0---------------|--------0-------|----------------|--------0-------|
E|------------------|----------------|----------------|----------------|

e|----3-----3-----3-|--3-------3-----|--3-----3-----3-|--3-------3-----| 97
B|------0-----0-----|----0-------0---|----0-----0-----|----0-------0---|
G|--------0-----0---|------0-------0-|------0-----0---|------0-------0-|
D|------------------|0---------------|----------------|0---------------|
A|------------------|--------2-------|----------------|--------2-------|
E|--3---------------|----------------|3---------------|----------------|

e|----3-----3-----3-|--3-------3-----|--2-----2-----2-|--2-------2-----| 101
B|------1-----1-----|----1-------1---|----1-----1-----|----1-------1---|
G|--------0-----0---|------0-------0-|------2-----2---|------2-------2-|
D|------------------|2---------------|0---------------|0---------------|
A|--0---------------|--------0-------|----------------|--------0-------|
E|------------------|----------------|----------------|----------------|

e|----3-----3-----3-|--3-------3-----|--3-----3-----3-|--3-------3-----| 105
B|------0-----0-----|----0-------0---|----0-----0-----|----0-------0---|
G|--------0-----0---|------0-------0-|------0-----0---|------0-------0-|
D|------------------|0---------------|----------------|0---------------|
A|------------------|--------2-------|----------------|--------2-------|
E|--3---------------|----------------|3---------------|----------------|

e|----0-----0-----0-|--0-------0-----|--2-----2-----2-|--2-------2-----| 109
B|------1-----1-----|----1-------1---|----1-----1-----|----1-------1---|
G|--------0-----0---|------0-------0-|------2-----2---|------2-------2-|
D|------------------|2---------------|0---------------|0---------------|
A|--3---------------|----------------|----------------|--------0-------|
E|------------------|--------3-------|----------------|----------------|
            I don't wanna                   talk about it

e|----3-----3-----3-|--2-----2-----2-|--0-----0-----0-|--0-------0-----| 113
B|------0-----0-----|----3-----3-----|----0-----0-----|----0-------0---|
G|--------0-----0---|------4-----4---|------0-----0---|------0-------0-|
D|--0---------------|----------------|----------------|2---------------|
A|------------------|2---------------|----------------|--------2-------|
E|------------------|----------------|0---------------|----------------|
  how you          broke my        heart.

e|----0-----0-----0-|--0-----0-----0-|--2-----2-----2-|--2-----2-----2-| 117
B|------1-----1-----|----1-----1-----|----1-----1-----|----1-----1-----|
G|--------0-----0---|------0-----0---|------2-----2---|------2-----2---|
D|------------------|----------------|0---------------|0---------------|
A|--3---------------|3---------------|----------------|----------------|
E|------------------|----------------|----------------|----------------|
             If I stay here just a little bit longer

e|----0-----0-----0-|--0-----0-----0-|2---------------|----------------| 121
B|------1-----1-----|----1-----1-----|1---------------|----------------|
G|--------0-----0---|------0-----0---|2---------------|----------------|
D|------------------|----------------|0---------------|----------------|
A|--3---------------|3---------------|----------------|----------------|
E|------------------|----------------|----------------|----------------|
         if I stay here, won't you listen

e|----3-----3-----3-|--3-----3-----3-|--0-----0-----0-|--0-----0-----0-| 125
B|------1-----1-----|----1-----1-----|----1-----1-----|----1-----1-----|
G|--------0-----0---|------0-----0---|------0-----0---|------0-----0---|
D|------------------|----------------|0---------------|0---------------|
A|--0---------------|3---------------|----------------|----------------|
E|------------------|----------------|----------------|----------------|
           to my heart,                            whoa,         my 

e|----3-----3-----3-|--3-------3-----|--3-----3-----3-|--3-------3-----| 129
B|------0-----0-----|----0-------0---|----0-----0-----|----0-------0---|
G|--------0-----0---|------0-------0-|------0-----0---|------0-------0-|
D|------------------|0---------------|----------------|0---------------|
A|------------------|--------2-------|----------------|--------2-------|
E|--3---------------|----------------|3---------------|----------------|
   heart                                 

e|----3-----3-----3-|--3-----3-----3-|--0-----0-----0-|--0-----0-----0-| 133
B|------1-----1-----|----1-----1-----|----1-----1-----|----1-----1-----|
G|--------0-----0---|------0-----0---|------0-----0---|------0-----0---|
D|------------------|----------------|0---------------|0---------------|
A|--0---------------|3---------------|----------------|----------------|
E|------------------|----------------|----------------|----------------|
              my heart,                            whoa,         my 

e|----3-----3-----3-|--3-------3-----|--3-----3-----3-|--3-------3-----| 137
B|------0-----0-----|----0-------0---|----0-----0-----|----0-------0---|
G|--------0-----0---|------0-------0-|------0-----0---|------0-------0-|
D|------------------|0---------------|----------------|0---------------|
A|------------------|--------2-------|----------------|--------2-------|
E|--3---------------|----------------|3---------------|----------------|
   heart                                 

 Outro (???)
e|----4-----4-----4-|--4-------4-----|--3-----3-----3-|--3-------3-----| 141
B|------2-----2-----|----2-------2---|----2-----2-----|----2-------2---|
G|--------1-----1---|------1-------1-|------3-----3---|------3-------3-|
D|------------------|3---------------|1---------------|1---------------|
A|--1---------------|--------1-------|----------------|--------1-------|
E|------------------|----------------|----------------|----------------|

e|----4-----4-----4-|--4-----4-----4-|--4-----4-----4-|--4-----4-----4-| 145
B|------4-----4-----|----4-----4-----|----4-----4-----|----4-----4-----|
G|--------5-----5---|------5-----5---|------5-----5---|------5-----5---|
D|------------------|----------------|----------------|----------------|
A|------------------|----------------|----------------|----------------|
E|--4---------------|4---------------|4---------------|4---------------|

e|----4-----4-----4-|--4-------4-----|--3-----3-----3-|--3-------3-----| 149
B|------2-----2-----|----2-------2---|----2-----2-----|----2-------2---|
G|--------1-----1---|------1-------1-|------3-----3---|------3-------3-|
D|------------------|3---------------|1---------------|1---------------|
A|--1---------------|--------1-------|----------------|--------1-------|
E|------------------|----------------|----------------|----------------|

e|----4-----4-----4-|--4-----4-----4-|--4-----4-----4-|--4-----4-----4-| 153
B|------4-----4-----|----4-----4-----|----4-----4-----|----4-----4-----|
G|--------5-----5---|------5-----5---|------5-----5---|------5-----5---|
D|------------------|----------------|----------------|----------------|
A|------------------|----------------|----------------|----------------|
E|--4---------------|4---------------|4---------------|4---------------|

e|----4-----4-----4-|--4-------4-----|--3-----3-----3-|--3-------3-----| 157
B|------2-----2-----|----2-------2---|----2-----2-----|----2-------2---|
G|--------1-----1---|------1-------1-|------3-----3---|------3-------3-|
D|------------------|3---------------|1---------------|1---------------|
A|--1---------------|--------1-------|----------------|--------1-------|
E|------------------|----------------|----------------|----------------|

e|----4-----4-----4-|--4-----4-----4-|--4-----4-----4-|--4-----4-----4-| 161
B|------4-----4-----|----4-----4-----|----4-----4-----|----4-----4-----|
G|--------5-----5---|------5-----5---|------5-----5---|------5-----5---|
D|------------------|----------------|----------------|----------------|
A|------------------|----------------|----------------|----------------|
E|--4---------------|4---------------|4---------------|4---------------|

e|----1-----1-----1-|--1-------1-----|--3-----3-----3-|--3-------3-----| 165
B|------2-----2-----|----2-------2---|----2-----2-----|----2-------2---|
G|--------1-----1---|------1-------1-|------3-----3---|------3-------3-|
D|------------------|3---------------|1---------------|1---------------|
A|--4---------------|----------------|----------------|--------1-------|
E|------------------|--------4-------|----------------|----------------|

e|----4-----4-----4-|--3-----3-----3-|--1-----1-----1-|--1-------1-----| 169
B|------1-----1-----|----4-----4-----|----1-----1-----|----1-------1---|
G|--------1-----1---|------4-----4---|------1-----1---|------1-------1-|
D|--1---------------|----------------|----------------|3---------------|
A|------------------|3---------------|----------------|--------3-------|
E|------------------|----------------|1---------------|----------------|

e|----1-----1-----1-|--1-----1-----1-|--3-----3-----3-|--3-----3-----3-| 173
B|------2-----2-----|----2-----2-----|----2-----2-----|----2-----2-----|
G|--------1-----1---|------1-----1---|------3-----3---|------3-----3---|
D|------------------|----------------|1---------------|1---------------|
A|--4---------------|4---------------|----------------|----------------|
E|------------------|----------------|----------------|----------------|

e|----1-----1-----1-|--1-----1-----1-|3---------------|----------------| 177
B|------2-----2-----|----2-----2-----|2---------------|----------------|
G|--------1-----1---|------1-----1---|3---------------|----------------|
D|------------------|----------------|1---------------|----------------|
A|--4---------------|4---------------|----------------|----------------|
E|------------------|----------------|----------------|----------------|


Alternative Picking Patterns:

 Bar 30 / 31 etc.
e|----3-----3-----3-|--3-----3-----3-|--0-----0-----0-|--0-------0-----| 33
B|------0-----0-----|----0-----0-----|----0-----0-----|----0-------0---|
G|--------0-----0---|------0-----0---|------0-----0---|------0-------0-|
D|------------------|----------------|----------------|2---------------|
A|------------------|----------------|----------------|--------2-------|
E|--3---------------|2---------------|0---------------|----------------|

 Bar 40 / 41 etc.
e|----0-----0-----0-|--0-----0-----0-|--2-----2-----2-|2---------------| 41
B|------1-----1-----|----1-----1-----|----1-----1-----|1---------------|
G|--------0-----0---|------0-----0---|------2-----2---|2---------------|
D|------------------|----------------|0---------------|0---------------|
A|--3---------------|3---------------|----------------|----------------|
E|------------------|----------------|----------------|----------------|

 Bar 136 / 137
e|----3-----3-----3-|--3-------3-----|--3-------3-----|--3-------------| 137
B|------0-----0-----|----0-------0---|----0-------0---|----0-----------|
G|--------0-----0---|------0-------0-|------0-------0-|------0---------|
D|------------------|0---------------|0---------------|----------------|
A|------------------|--------2-------|--------3-------|2---------------|
E|--3---------------|----------------|----------------|----------------|

Chords:
Am7    - x02013 / x02010
D7     - xx0212
G      - 320003
C      - x32010
Bm/F#  - 224432
Em     - 022000
D11    - x54533 / xx0010

A#m7   - x13124
G#     - 466544
Cm     - 335543
D#7    - xx1323
C#     - x43121
Fm     - 133111
D#11   - x65644 / xx1121
Suggest correction
comments
print report bad tab
3 comments total.
0 reply
faatu.tuputala 10 Sep 07, 2013 05:02 AM

can be kind of hard to understand!

0 reply
ahmadannas 10 May 26, 2015 09:19 AM

It's simple and fun! THANK YOU!

0 reply
frankboasorte 10 Jul 18, 2016 10:17 AM

how do I change to chords where I can play along? this is the solo and I want to sing along. thanks

guest
You may want to rate the tab now too:
select rating
Wanna post a correction for this tab? Suggest correction