Oops, an error
Loading. Please wait.

Maggie May Tab

version 1
version 1

Solo

Whole song

Interactive

42,234 views 54 this week
2 commentsread comments
1 2 3 4 5
x 23
add to favorites
launch autoscroll
font size
0
reset
how to read this tab
guitar tuner
Autoscroll
slow
fast
+/-
esc
set tempo
stop
Help us to improve Ultimate-Guitar.com Take our survey!
×
Author
Difficulty
novice
ARTIST: ROD STEWART
SONG:   MAGGIE MAY - SOLO
SOLO:   PT. 1 = 3:00 TO 3:14
        PT. 2 = 4:00 TO 4:14
        PT. 3 = 4:14 TO 4:26
TAB BY: DON CZARSKI
EMAIL:  GUITARZAN7@HOTMAIL.COM


                    MAGGIE MAY - SOLO 

PART 1 = 3:00 TO 3:14

E ---------------------|--------------------|----------------| 
B ---------------------|--------------------|----------------|
G ---------------------|--------------------|----------------|
D ------7--------------|------7-------------|------7--7h9----|
A --7/9---7/8/7--5-----|--7/9---9\7-7-5---5-|--7/9---------9-|
E -------------------7-|----------------7---|----------------|

E --------------------|------------------|------------------------| 
B --------------------|------------------|------------------------|
G --------------------|------------------|-7----------------------|
D --------------------|------7-----------|---7--7-----------------|
A --7/8/7--5---5-5----|--7/9---7h9-7-5---|------7-h9--7/5---7br-5-|
E -----------7------7-|---------------7--|----------------7-------|

E ---------------------|
B ---------------------|
G ---------9b--7-------|
D ------7--------------|
A --7/9----------------|
E ---------------------|



PART 2 = 4:00 TO 4:14

E ------------------|---------------------------------| 
B ------------------|---------------------------------|
G ------------------|---------------------------------|
D ------7-----------|------7----------------7-7h9-----|
A --7/9---7h9-7-5---|--7/9---8p7-5---5--7/9-------7h9-|
E ----------------7-|--------------7------------------|


E ---------------------|------------------|-------------------| 
B ---------------------|------10----------|------10-----------|
G ------9b-9-7---7-7---|-9/11----9b-9-7---|-9/11----9b-9-7----|
D --7-9--------9-----9-|----------------9-|-----------------9-|
A ---------------------|------------------|-------------------|
E ---------------------|------------------|-------------------|


E -----------------------|--------------|
B -----------------------|--------------|
G -7h9p7--7h9p7----7-9-7-|-7---7--------|
D -------9------9--------|-7h9-7--------|
A -----------------------|-------9\7-5--|
E -----------------------|--------------|



PART 3 = 4:14 TO 4:26

E ---------------------|----------------------|
B ---------------------|----------------------|
G ---------------------|----------------------|
D ------7--------------|-----7----------------|
A --7/9----9\7-5-------|-7/9---9--7h8p7\5-5---|
E ----------------7-5--|--------------------7-|

E ----------------------------------|
B ----------------------------------|
G -----------7---9b-9b--7---7---7---|
D -----7-7-9---9----------9---9---9-|
A -7/9------------------------------|
E ----------------------------------|

E --------------------|-10-----------------|
B ------10------------|----10--------------|
G -9-11----9b-9-7-----|-------9p7-7---9b-7-|
D -----------------9--|--------------9-----|
A --------------------|--------------------|
E --------------------|--------------------|


E ---------10----------------------|----------------|
B ------10----10-10----------------|----------------|
G -9/11-------------11\9-7-9b-7-7--|----------------|
D ---------------------------------|-7/9-7----------|
A ---------------------------------|--------9\7-5-5-|
E ---------------------------------|----------------|
Suggest correction
comments
print report bad tab
2 comments total.
0 reply
randy.borre.1 10 Sep 21, 2013 05:52 PM

And part 2 is where please, really need it.
Anyway great tab

0 reply
DON CZARSKI 23,718 Dec 13, 2015 04:27 PM

Feel free to improvise in spots if need be. However, these work very well for the song... Enjoy.

guest
You may want to rate the tab now too:
select rating
Wanna post a correction for this tab? Suggest correction