Oops, an error
Loading. Please wait.

Oh God I Wish I Was Home Tonight Tab

22 views 3 this week
2 commentsread comments
1 2 3 4 5
1 last vote to show rating
add to favorites
launch autoscroll
font size
0
reset
how to read this tab
guitar tuner
Autoscroll
slow
fast
+/-
esc
set tempo
stop
Help us to improve Ultimate-Guitar.com Take our survey!
×
Author
Difficulty
Tuning
novice
E A D G B E
--------------------------------------------------------------------------
                            Artist - Rod Stewart
                          ***********************
                   Song - Oh God I Wish I Was Home Tonight
                  *****************************************
                       Album - Foolish Behavior (1980)
                      *********************************
                            Tabbed By - Ayreon77
                           **********************
--------------------------------------------------------------------------
Tuning = Standard


00:09
INTRO
******
     s  s
e|-10\12/10-|---s--s---|--s--s------------s-|
B|----------|-10\12/10-|-8\10/8-7--5-5~~~~\-|
G|----------|----------|--------------------|
D|----------|----------|--------------------|
A|----------|----------|--------------------|
E|----------|----------|--------------------|


--------------------
VERSE 1
********  
  00:20      00:28                 00:36         00:43    
e|-br-|-----|--s-s-----|----------|-12-12--rb---|----------|------------|
B|-5--|-rb--|-5\7/5-rb-|-brp------|-------12-10-|-5-5-5-rb-|-5-rbp------|
G|----|-4-2-|-------4--|-4--2-----|-------------|-------4--|---4--2-----|
D|----|-----|----------|------4-2-|-------------|----------|--------4-2-|
A|----|-----|----------|----------|-------------|----------|------------|
E|----|-----|----------|----------|-------------|----------|------------|


--------------------
VERSE 2 - No Solos
********

--------------------
CHORUS - No Solos
*******

--------------------
VERSE 3
********  
  01:35    s                        01:42
e|-14-14-14\12-|-12-12---s---14-12-|---h------h------h-----h--------------|
B|-------------|-------12\14-------|-12-14--12-14--12-14-12-14-12---------|
G|-------------|-------------------|------------------------------14-14~~-|
D|-------------|-------------------|--------------------------------------|
A|-------------|-------------------|--------------------------------------|
E|-------------|-------------------|--------------------------------------|


--------------------
CHORUS - No Solos
*******

--------------------
02:16
SOLO
*****
e|---------|--------------------------|----------|---------|-------------------------|------|
B|---------|------h----h--------------|-brp------|---------|------h----h-------------|-rb-b-|
G|--s--2-2-|---2-2-4--2-4-2---0-2~~~~-|-4--2-----|--s--2-2-|---2-2-4--2-4-2---0-2~~~-|-4----|
D|-2\4-----|-4--------------4---------|------4-2-|-2\4-----|-4--------------4--------|------|
A|---------|--------------------------|----------|---------|-------------------------|------|
E|---------|--------------------------|----------|---------|-------------------------|------|

02:30
e|--h-------b-------------2-2---rb-----|--h-------br---------------|
B|-3-5-5-5--5-5-3-3--p----------5--5---|-3-5-5-5--5--3-3--p--------|
G|------------------4-2-2------------2-|-----------------4-2-2~~~~-|
D|-------------------------------------|---------------------------|
A|-------------------------------------|---------------------------|
E|-------------------------------------|---------------------------|


--------------------
VERSE 4 
********
  02:57                                 03:04
e|-12--rb-b-12-|-12-12--rb-------------|-17-17-17-17--rb-b-|-17-17--rb----|
B|----12-------|-------12-10-----------|-------------17----|-------17--17-|
G|-------------|-------------11-9------|-------------------|--------------|
D|-------------|------------------11-9-|-------------------|--------------|
A|-------------|-----------------------|-------------------|--------------|
E|-------------|-----------------------|-------------------|--------------|


--------------------
CHORUS - No Solos
*******

--------------------
VERSE 5
********
  03:34
e|---s--s---|--s-s--|---------|
B|-10\12/10-|-5\7/5-|--s-s----|
G|----------|-------|-4\6/4-2-|
D|----------|-------|---------|
A|----------|-------|---------|
E|----------|-------|---------|


--------------------
CHORUS - No Solos
*******

--------------------
VERSE 6
********
  04:34
e|-17-17--b-|-17-17--brb--------|
B|-------17-|-------17----17-15-|
G|----------|-------------------|
D|----------|-------------------|
A|----------|-------------------|
E|----------|-------------------|



p   = Pull Off
h   = Hammer On
b   = Bend
rb  = Release Bend
br  = Bend Release
brp = Bend Release Pulloff
s   = Slide


ENJOY...........
Suggest correction
Give kudos to tab author, rate the tab!
1 2 3 4 5
comments
print report bad tab
2 comments total.
0 reply
DON CZARSKI [tm] 23,675 Sep 26, 2016 01:58 PM

Wow, you did it all... Chord tab, tab, and bass tab...
Great job on all of them!

0 reply
ayreon77 17,805 Sep 26, 2016 02:13 PM

do you need the drums ha ha ha, thx Don

guest
You may want to rate the tab now too:
select rating
Wanna post a correction for this tab? Suggest correction