Oops, an error
Loading. Please wait.

Oh La La Tab

version 2
version 2

Whole song

8,365 views 3 this week
no commentswrite comment
1 2 3 4 5
please rate
add to favorites
launch autoscroll
font size
0
reset
how to read this tab
guitar tuner
Autoscroll
slow
fast
+/-
esc
set tempo
stop
Help us to improve Ultimate-Guitar.com Take our survey!
×
Author
Difficulty
intermediate
Tuning: Standard
intro:strum

  D           Em7    G
e|--2-2-2-2-2-----3-3-3-3-3------------------|
B|--3-3-3-3-3--------------------------------|
G|--2-2-2-4-2---------0-0-0------------------| x4
D|------------4-0-2-2-------4-2-0------------|
A|----------------2-2-2-2-2------------------|
E|--------------------3-3-3------------------|
Melody:strum

  D           Em7    G
e|--2-2-2-2-2-----3-3-3-3-3------------------|
B|--3-3-3-3-3--------------------------------|
G|--2-2-2-4-2---------0-0-0------------------| x4
D|------------4-0-2-2-------4-2-0------------|
A|----------------2-2-2-2-2------------------|
E|--------------------3-3-3------------------|

Melody:strum

  D           Em7    G
e|--2-2-2-2-2-----3-3-3-3-3------------------|
B|--3-3-3-3-3--------------------------------|
G|--2-2-2-4-2---------0-0-0------------------| x4
D|------------4-0-2-2-------4-2-0------------|
A|----------------2-2-2-2-2------------------|
E|--------------------3-3-3------------------|

1st Verse:
 D                  Em7
Poor old granddad, I laughed at all his words,
 D                             Em7
I thought he was a bitter man, he spoke of women's ways,
 D                                      Em7
They'll trap you, and they'll use you, and before you even know,
 D                                      Em7
For love is blind and your far to kind, don't ever let it show.

Chorus:
 D                             Em7  G
I wish that I knew what I know now, when I was younger,
 D                             Em7  G
I wish that I knew what I know now, when I was stronger.

Melody:strum

  D           Em7    G
e|--2-2-2-2-2-----3-3-3-3-3------------------|
B|--3-3-3-3-3--------------------------------|
G|--2-2-2-4-2---------0-0-0------------------| x4
D|------------4-0-2-2-------4-2-0------------|
A|----------------2-2-2-2-2------------------|
E|--------------------3-3-3------------------|
2nd Verse:
 D                                Em7
The Can Can's such a pretty show, they'll steal your heart away,
 D                                    Em7
But backstage's back on earth again, the dressing rooms are great,
 D                                            Em7
They'll come on strong and it ain't to long, before they make you feel a man,
 D                                        Em7
But love is blind and you soon will find, your just a boy again.

Chorus:
 D                             Em7  G
I wish that I knew what I know now, when I was younger,
 D                             Em7  G
I wish that I knew what I know now, when I was stronger.

Melody:strum

  D           Em7    G
e|--2-2-2-2-2-----3-3-3-3-3------------------|
B|--3-3-3-3-3--------------------------------|
G|--2-2-2-4-2---------0-0-0------------------| x4
D|------------4-0-2-2-------4-2-0------------|
A|----------------2-2-2-2-2------------------|
E|--------------------3-3-3------------------|

3rd Verse:
 D                                         Em7
When you want her lips, you get her cheek, makes you wonder where you are,
 D                                            Em7
If you want some more, and she's fast asleep, leaves you twinklin' with the stars,
 D                   Em7
Poor young grandson, there's nothing I can say,
 D                                 Em7
You'll have to learn just like me, and that's the hardest way.

Chorus:
 D                             Em7  G
I wish that I knew what I know now, when I was younger,
 D                             Em7  G
I wish that I knew what I know now, when I was stronger.

Melody:

 Melody:strum

  D           Em7    G
e|--2-2-2-2-2-----3-3-3-3-3------------------|
B|--3-3-3-3-3--------------------------------|
G|--2-2-2-4-2---------0-0-0------------------| x4
D|------------4-0-2-2-------4-2-0------------|
A|----------------2-2-2-2-2------------------|
E|--------------------3-3-3------------------|

 D              Em7
Oh la la, oh la la ya ya ya,
 D              Em7
Oh la la, oh la la ya ya ya.

Melody:strum

  D           Em7    G
e|--2-2-2-2-2-----3-3-3-3-3------------------|
B|--3-3-3-3-3--------------------------------|
G|--2-2-2-4-2---------0-0-0------------------| x4
D|------------4-0-2-2-------4-2-0------------|
A|----------------2-2-2-2-2------------------|
E|--------------------3-3-3------------------|

Outro: (slowly fade out)

 D            Em7     G
e|-------------------------------|
B|-------------------------------|
G|--2----------------------------|
D|----5-4-2-0h2-4-5-4-2----------|
A|----------------------5-0h2-5--|
E|-------------------------------|
Suggest correction
Give kudos to tab author, rate the tab!
1 2 3 4 5
comments
print report bad tab
guest
You may want to rate the tab now too:
select rating
Please do not post tabs as comments. Select "correction" instead!